Search tabs:
Browse artists: 0-9 | A | B | C | D | E | F | G | H | I | J | K | L | M | N | O | P | Q | R | S | T | U | V | W | X | Y | Z
/ Coheed & Cambria / Good Apollo I'm Burning Star IV, Vol. 1: From Fear Through the Eyes of Madness (2005) / Keeping the Blade bass tab

band: coheed and cambria
album: good apollo i'm burning star iv: volume one - from fear through the eyes of madness
song: keeping the blade
tuning: half-step down EbAbDbGb

key:
~ let ring
p pull off
h hammer
x mute
^ bend
/ slide
<2> accent
[2222] repeat

Just did this for fun. Obviously it doesnt work out perfect (or sound as good) on bass,
but its fun to play :D

The parts are in general order, but obviously some of them overlap. Just look at the
minute marks above most bars and you should be able to figure it out.



lone violin - 0:00                   0:19
Gb|-7~----4~--6~-|-7~----4~--6~-|---|-6~--4~-6-2~-----|
Db|--------------|--------------|---|--------------2~-|
Ab|--------------|--------------|---|-----------------|
Eb|--------------|--------------|---|-----------------|

0:28
Gb|-11~---14~--12~---7~--9-6~-|
Db|---------------------------|
Ab|---------------------------|
Eb|---------------------------|


piano theme - 0:14
Gb|-----------------------|
Db|-5-4-0--0-4------------| x8
Ab|------------4--4h5p4-2-|
Eb|-----------------------|

steady piano single note riff
0:15			  0:21		       0:29		    0:36          0:43
Gb|-11~------------------|-11~----------------|-11~----------------|-11~---------|-4~-|
Db|------11-12-9-11-7-9~-|------11~--12~--9~--|------11-12-9-11-7~-|--------11~--|-4~-|
Ab|----------------------|--------------------|--------------------|-------------|-2~-|
Eb|----------------------|--------------------|--------------------|-------------|----|


lone violin - 0:46
Gb|------------------11-9~-|---------------------------11-14~-|
Db|-9---9-11-12-11-9-------|-9---9-11-9---9-11-12-11-9--------|
Ab|---9--------------------|---9--------9---------------------|
Eb|------------------------|----------------------------------|

0:59
Gb|-11-/16~--14-12-11~--12-11-9-7~--9-6-------------------|
Db|--------------------------------------7-5~--7-4-2-0----|
Ab|----------------------------------------------------4~-|
Eb|-------------------------------------------------------|


ring in return theme - 1:14
Gb|-----------4~--2h4p2---------------|-----------4~--2-0-------------|
Db|---------0-----------4~--0-4-5-----|---------0---------4~--0-------| x4
Ab|-2~--2-4-----------------------5-4-|-2~--2-4-----------------5~-4~-|
Eb|-----------------------------------|-------------------------------|


ending
Gb|-4~--------|
Db|----5~--4~-|
Ab|-----------|
Eb|-----------|


Coheed & Cambria albums
2005 Good Apollo I'm Burning Star IV, Vol. 1: From Fear Through the Eyes of Madness
2003 In Keeping Secrets of Silent Earth: 3
2002 The Second Stage Turbine Blade
Good Apollo I'm Burning Star IV, Vol. 1: From Fear Through the Eyes of Madness tabs
01Keeping the Blade tabbass tab
02Always & Never tabbass tab
03Welcome Home tabbass tab
05Crossing the Frame tabbass tab
06Apollo I: The Writing Writer tabbass tab
07Once Upon Your Dead Body tabbass tab
08Wake Up tabbass tab
09The Suffering tabbass tab
12The Willing Well: I - Fuel for the Feeding End tabbass tab
13The Willing Well: II - From Fear Through the Eyes of Madness tabbass tab
14The Willing Well: III - Apollo II: The Telling Truth tabbass tab
15The Willing Well: IV - The Final Cut tabbass tab

 

1