Search tabs:
Browse artists: 0-9 | A | B | C | D | E | F | G | H | I | J | K | L | M | N | O | P | Q | R | S | T | U | V | W | X | Y | Z
/ Coheed & Cambria / Good Apollo I'm Burning Star IV, Vol. 1: From Fear Through the Eyes of Madness (2005) / Once Upon Your Dead Body bass tab

band: coheed and cambria
album: good apollo i'm burning star iv: volume one - from fear through the eyes of madness
song: once upon your dead body
tuning: standard EADG

Pretty sure about *most* of this, but some spots are a little iffy. Not so much on
the notation itself, but on whether or not I made it clear in tab-form exactly how
to play it. Anyway, not the best tab, but this should serve as a guide to the song
no prob. Feel free to submit corrections.

verse
G|-------||-------------------||   ||-------------------||
D|-------||-------------------||x4 ||-------------------||x2
A|-------||-------------------||   ||----2--------------||
E|-0/9\0-||-00-0-022-44-444-4-||   ||-00---022-44-444-4-||


pre-chorus
G|-------||-------------------||   ||------------------||------------------------||
D|-------||-------------------||x2 ||------4-----------||------------------------||
A|-------||-------------------||   ||--------4h6-4\2-4-||------------------------||
E|-0/9\0-||-00-0-022-44-444-4-||   ||-2~-x2------------||-[0000]-[2222]/4-[0000]-||


chorus
G|------------------------------||
D|------------------------------||
A|-7-7--4-4---------------------||
E|-----------4-4--2-2--2--2/9\0-||


verse
G|-------------------||   ||-------------------||   ||--------4h6-------------||
D|-------------------||x1 ||-------------------||x7 ||------4-----4-----------|| *SOMETHING like that at least*
A|-------------------||   ||----2--------------||   ||--------------4h6p4-2-4-||
E|-00-0-022-44-444-4-||   ||-00---022-44-444-4-||   ||-2~-x2------------------||

G|---------------------------------|------------------------------------------||
D|---------------------------------|--------4-4h6-----------------------------||
A|---------------4-2-1-2-----------|-------------4h6\2------------------------||
E|-[0000]-[2222]---------[0000]2h4-|-[2222]------------[0000]-[2222]/4-[0000]-||


chorus
G|--------------------|----------------------------------||
D|--------------------|----------------------------------||
A|-7-7--4-4-----------|-6-7-7--4-4--642------------------||
E|-----------4-4--2-2-|-----------------4-4--440-2-2-2-2-||

G|---------------------------------------||
D|---------------------------------------||x4
A|-7-7-7-7---4-4-4-642-------------------||
E|------7-7-------------4-4-4-4--2-2-2-2-||

G|---------------|----------|---------|---------||   ||------------------||
D|---------------|----------|---------|---------||x4 ||------------------||*end with this*
A|-----4h6-2h4-2-|-44-444-2-|---------|---------||   ||-------22-44------||
E|-000-----------|----------|-44-4444-|-22-2222-||   ||-22-44-------0-0~-||


Coheed & Cambria albums
2005 Good Apollo I'm Burning Star IV, Vol. 1: From Fear Through the Eyes of Madness
2003 In Keeping Secrets of Silent Earth: 3
2002 The Second Stage Turbine Blade
Good Apollo I'm Burning Star IV, Vol. 1: From Fear Through the Eyes of Madness tabs
01Keeping the Blade tabbass tab
02Always & Never tabbass tab
03Welcome Home tabbass tab
05Crossing the Frame tabbass tab
06Apollo I: The Writing Writer tabbass tab
07Once Upon Your Dead Body tabbass tab
08Wake Up tabbass tab
09The Suffering tabbass tab
12The Willing Well: I - Fuel for the Feeding End tabbass tab
13The Willing Well: II - From Fear Through the Eyes of Madness tabbass tab
14The Willing Well: III - Apollo II: The Telling Truth tabbass tab
15The Willing Well: IV - The Final Cut tabbass tab

 

1