Search tabs:
Browse artists: 0-9 | A | B | C | D | E | F | G | H | I | J | K | L | M | N | O | P | Q | R | S | T | U | V | W | X | Y | Z
/ Coheed & Cambria / Good Apollo I'm Burning Star IV, Vol. 1: From Fear Through the Eyes of Madness (2005) / The Suffering bass tab

song: the suffering
tuning: standard EADG (the song is actually half a step down, in Eb-Ab-Db-Gb. I thought
my guitar WAS a half step down when I started tabbing out the song,

but turns out it was in standard. Not a big deal though, the only note you cant get
is the Eb's during the verse right after the first chorus [marked with

**'s]. They should be open Eb's if you tune down a half step, but you can just play
them as the 6 on A if you play in standard)



intro
G|----|---------|------------------|------------------|----------------------|
D|----|---------|------------------|------------------|--------------------4-|
A|----|-4-6--66-|------------------|------------------|--------2-----2-------|
E|-7\-|---------|-2-4--4-6-7-6-4-0-|-2--2-4-5-7-5-4-0-|-0--0-0---0-0---0-0---|

verse
G|---------------|---------------|------------------|------------------|----------------------|
D|----44-----4---|---------------|------------------|------------------|--------------------4-| x3
A|-2-----444---6-|-4-6--66-66-66-|------------------|------------------|--------2-----4-------|
E|---------------|---------------|-2-4--4-6-7-6-4-0-|-2--2-4-5-7-5-4-0-|-0--0-0---0-0---0-0---|

pre-chorus/post-chorus
G|------------------|---------------|-----------|-----------|---------------|
D|------------------|---------------|-----------|-----------|---------------|
A|-4-44444-x4-6-7-7-|---------------|-----------|-----------|-2-222---------|
E|------------------|-000-000-000-2-|-4-x-4-676-|-2-x-2-454-|-------0-0-0-0-|

G|------------------|---------------|-----------|---------------|---------------|---------|
D|------------------|---------------|-----------|---------------|-----4-2-1-----|---------|
A|-4-44444-x4-6-7-7-|---------------|-----------|-----4-2-1-----|-2-2-------4-2-|---------|
E|------------------|-000-000-000-2-|-4-x-4-676-|-2-2-------4-2-|---------------|-0-0-0-0-|

verse	     ** **
G|----|------------|------------------|------------------|----------------------|
D|----|------------|------------------|------------------|--------------------4-|
A|----|-4-6--66-66-|------------------|------------------|--------2-----4-------|
E|-7\-|------------|-2-4--4-6-7-6-4-0-|-2--2-4-5-7-5-4-0-|-0--0-0---0-0---0-0---|

G|---------------|---------------|------------------|------------------|----------------------|
D|----44-----4---|---------------|------------------|------------------|--------------------4-|
A|-2-----444---6-|-4-6--66-66-66-|------------------|------------------|--------2-----4-------|
E|---------------|---------------|-2-4--4-6-7-6-4-0-|-2--2-4-5-7-5-4-0-|-0--0-0---0-0---0-0---|

pre-chorus/post-chorus
G|------------------|---------------|-----------|-----------|-----------------------------------|
D|------------------|---------------|-----------|-----------|-----------------------------------|
A|-4-44444-x4-6-7-7-|---------------|-----------|-----------|-2-222-----------------------------|
E|------------------|-000-000-000-2-|-4-x-4-676-|-2-x-2-454-|-------0-0-0-0-0-0-0-0-0--000000-2-|

chorus
G|------------|--------|--------------------|-------------|------------|
D|------------|--------|--------------------|-------------|------------| x2
A|-222222-0---|--------|--------------------|-------0-1-2-|--------0-1-|
E|----------4-|-222222-|-4-444-444--4-7-6-4-|-0-000-------|-2-222-4----|

pre-chorus/post-chorus
G|------------------|---------------|-----------|-----------|---------------|
D|------------------|---------------|-----------|-----------|---------------|
A|-4-44444-x4-6-7-7-|---------------|-----------|-----------|-2-222---------|
E|------------------|-000-000-000-2-|-4-x-4-676-|-2-x-2-454-|-------0-0-0-0-|

G|------------------|---------------|-----------|---------------|---------------|------------|
D|------------------|---------------|-----------|---------------|-----4-2-1-----|------------|
A|-4-44444-x4-6-7-7-|---------------|-----------|-----4-2-1-----|-2-2-------4-2-|------------|
E|------------------|-000-000-000-2-|-4-x-4-676-|-2-2-------4-2-|---------------|-0-00000000-|

chorus
G|------------|--------|--------------------|-------------|------------|
D|------------|--------|--------------------|-------------|------------| x3
A|-222222-0---|--------|--------------------|-------0-1-2-|--------0-1-|
E|----------4-|-222222-|-4-444-444--4-7-6-4-|-0-000-------|-2-222-4----|

G|------------|--------|--------------------|-------------|---------------------------------|
D|------------|--------|--------------------|-------------|-------------------2-1---2-1-----|
A|-222222-0---|--------|--------------------|-------0-1-2-|-----------------------2-----2-2-|
E|----------4-|-222222-|-4-444-444--4-7-6-4-|-0-000-------|-2-222-222-222-222---------------|


Coheed & Cambria albums
2005 Good Apollo I'm Burning Star IV, Vol. 1: From Fear Through the Eyes of Madness
2003 In Keeping Secrets of Silent Earth: 3
2002 The Second Stage Turbine Blade
Good Apollo I'm Burning Star IV, Vol. 1: From Fear Through the Eyes of Madness tabs
01Keeping the Blade tabbass tab
02Always & Never tabbass tab
03Welcome Home tabbass tab
05Crossing the Frame tabbass tab
06Apollo I: The Writing Writer tabbass tab
07Once Upon Your Dead Body tabbass tab
08Wake Up tabbass tab
09The Suffering tabbass tab
12The Willing Well: I - Fuel for the Feeding End tabbass tab
13The Willing Well: II - From Fear Through the Eyes of Madness tabbass tab
14The Willing Well: III - Apollo II: The Telling Truth tabbass tab
15The Willing Well: IV - The Final Cut tabbass tab

 

1