Search tabs:
Browse artists: 0-9 | A | B | C | D | E | F | G | H | I | J | K | L | M | N | O | P | Q | R | S | T | U | V | W | X | Y | Z
/ Coheed & Cambria / Good Apollo I'm Burning Star IV, Vol. 1: From Fear Through the Eyes of Madness (2005) / Wake Up bass tab

WAKE UP (Bassline)
                        As recorded by Coheed and Cambria
(From the 2005 Album GOOD APOLLO, I'M BURNING STAR IV - VOLUME ONE: FROM FEAR THROUGH THE EYES OF MADNESS)

Words by Claudio Sanchez

Music by Coheed and Cambria

Gtr I (Eb Ab Db Gb) - 'bass'

 Intro
  Slower Q=72
 4/4
  Gtr I
  W          H    H      W          Q.    E E Q  S S
|----------|-----------|----------|------------------||
|----------|-----------|----------|------------------||
|----------|-3---------|----------|-3----\0-2--------||
|-1--------|------3----|-1--------|-----------3--3h5-||


   Verse
    H    H      H    H      H    H      Q.   S S E Q  S S
||------------|-----------|-----------|---------------------||
||o-----------|-----------|-----------|--------------------o||
||o-----------|-3---------|-----------|-3----2p0-2---------o||
||--1----1----|------3----|-1----1----|------------3--3h5---||


 Pre-Chorus
  Q.   E E E e E   E E E S S E Q  S S   Q.   E E E e E   E E E S S E Q  S S
|----------------|--------------------|----------------|--------------------|
|----------------|---5----------------|----------------|---5----------------|
|------3-3-2-0-0-|-----3-2-0-2--------|------3-3-2-0-0-|-----3-2-0-2--------|
|-1--------------|-3-----------3--3h5-|-1--------------|-3-----------3--3h5-|


  H    H      H    H      H    H      H    E E e E
|-----------|-----------|-----------|--------------||
|-----------|-----------|-----------|--------------||
|-----------|-3---------|-----------|-3----2-----2-||
|-1----1----|------3----|-1----1----|--------3-3---||


 Chorus
  E H    E e E   Q..   S e Q  E   Q..   S e Q   E    H    E E E E
|--------------|-------5------5-|------------------|--------------|
|--------------|-3-------3-3----|--------------12\-|-3----3-2-3-5-|
|--------3-5-5-|----------------|-5-------5-5------|--------------|
|-3s8----------|----------------|-------5----------|--------------|


  E  Q.   E E e E   Q..   S e Q  E   Q..   S e Q  E   H..       +E
|-----------------|-------5------5-|----------------|----------------||
|-7s10------------|-3-------3-3----|--------------2-|-3---------(3)\-||
|---------5-3-5-5-|----------------|-5-------5-5----|----------------||
|-----------------|----------------|-------5--------|----------------||


 Verse
  H    H      H    H         H     H       Q.   S S E Q   S S
|-----------|--------------|-------------|--------------------|
|-----------|--------------|-------------|--------------------|
|-----------|-3------------|-------------|-3----2p0-2---------|
|-1----1----|------3-------|-1-----1-----|------------3---3h5-|


  H     H       H    H         H     H       Q.   S S E Q   S S
|-------------|--------------|-------------|--------------------||
|-------------|--------------|-------------|--------------------||
|-------------|-3------------|-------------|-3----2p0-2---------||
|-1-----1-----|------3-------|-1-----1-----|------------3---3h5-||


 Pre-Chorus
  Q.   E E E e E   E  E E S S E Q   S S   Q.   E E E e E   E E E S S E Q  S S
|----------------|----------------------|----------------|--------------------|
|----------------|----5-----------------|----------------|---5----------------|
|------3-3-2-0-0-|------3-2-0-2---------|------3-3-2-0-0-|-----3-2-0-2--------|
|-1--------------|-3------------3---3h5-|-1--------------|-3-----------3--3h5-|

  Q.   E E E e E   E E  E   S S   E  Q  S S
|----------------|--------------------------|
|----------------|---5----------------------|
|------3-3-2-0-0-|------3---2-0---2---------|
|-1--------------|-3-----------------3--3h5-|


   Q.   E E E e E   E E E S S E Q  S S
|-----------------|--------------------|
|-----------------|---5----------------|
|-------3-3-2-0-0-|-----3-2-0-2--------|
|--1--------------|-3-----------3--3h5-|


  H     H       H    H         H     H       Q.   S S E E E E
|-------------|--------------|-------------|-------------------||
|-------------|--------------|-------------|-------------------||
|-------------|-3------------|-------------|-3----2p0-2-----2--||
|-1-----1-----|------3-------|-1-----1-----|------------3-3----||



 Out-Chorus
  E H       E  e  E     Q..   S e Q  E    Q..   S e Q  E     H     E E E E
|-------------------|---------5------5-|-----------------|-----------2-2-4-|
|-------------------|---3-------3-3----|---------------2-|---3-----3-------|
|-----------3--5--5-|------------------|--5-------5-5----|-----------------|
|-3s8---------------|------------------|--------5--------|-----------------|


  E  Q.    E  E  e  E     Q..   S e Q  E    Q..   S e Q  E     H     E E E E
|---------------------|---------5------5-|-----------------|-----------2-2-4-|
|-7s10----------------|---3-------3-3----|---------------2-|---3-----3-------|
|----------5--3--5--5-|------------------|--5-------5-5----|-----------------|
|---------------------|------------------|--------5--------|-----------------|



  E  Q.    E  E  e  E     Q..   S e Q  E
|---------------------|---------5------5-|
|-7s10----------------|---3-------3-3----|
|----------5--3--5--5-|------------------|
|---------------------|------------------|



    Q..   S e Q   E      H     E E E E
|--------------------|-----------------|
|----------------12\-|---3-----3-2-3-5-|
|---5-------5-5------|-----------------|
|---------5----------|-----------------|



  E  Q.    E  E  e  E     Q..   S e Q  E     Q..   S e Q  E
|---------------------|---------5------5-|------------------|
|-7s10----------------|---3-------3-3----|----------------2-|
|----------5--3--5--5-|------------------|---5-------5-5----|
|---------------------|------------------|---------5--------|



    W            +W
|-------------|---------*|
|---3---------|--(3)----*|
|-------------|---------*|
|-------------|---------*|


Duration Legend
---------------
W - whole; H - half; Q - quarter; E - 8th; S - 16th; T - 32nd; X - 64th; a - acciaccatura
+ - note tied to previous; . - note dotted; .. - note double dotted
Uncapitalized letters represent notes that are staccato (1/2 duration)
Irregular groupings are notated above the duration line
Duration letters will always appear directly above the note/fret number it represents the
duration for.  Duration letters with no fret number below them represent rests.  Multi-
bar rests are notated in the form Wxn, where n is the number of bars to rest for.  Low
melody durations appear below the staff

Tablature Legend
----------------
 h   - hammer-on
 p   - pull-off
 b   - bend
 pb  - pre-bend
 r   - bend release (if no number after the r, then release immediately)
 /\  - slide into or out of (from/to "nowhere")
 s   - legato slide
 S   - shift slide
  - natural harmonic
[n]  - artificial harmonic
n(n) - tapped harmonic
 ~   - vibrato
 tr  - trill
 T   - tap
 TP  - trem. picking
 PM  - palm muting
\n/  - tremolo bar dip; n = amount to dip
 \n  - tremolo bar down
 n/  - tremolo bar up
/n\  - tremolo bar inverted dip
 =   - hold bend; also acts as connecting device for hammers/pulls
 <>  - volume swell (louder/softer)
 x   - on rhythm slash represents muted slash
 o   - on rhythm slash represents single note slash

Misc Legend
-----------
 |  - bar
||  - double bar
||o - repeat start
o|| - repeat end
*|  - double bar (ending)
 :  - bar (freetime)
 $  - Segno
 &  - Coda
Tempo markers -  = BPM(8/16=s8/s16), where s8 = swing 8ths, s16 = swing 16ths


***************************************************************************************
* Generated using Power Tab Editor by Brad Larsen - http://powertab.guitarnetwork.org *
***************************************************************************************


Coheed & Cambria albums
2005 Good Apollo I'm Burning Star IV, Vol. 1: From Fear Through the Eyes of Madness
2003 In Keeping Secrets of Silent Earth: 3
2002 The Second Stage Turbine Blade
Good Apollo I'm Burning Star IV, Vol. 1: From Fear Through the Eyes of Madness tabs
01Keeping the Blade tabbass tab
02Always & Never tabbass tab
03Welcome Home tabbass tab
05Crossing the Frame tabbass tab
06Apollo I: The Writing Writer tabbass tab
07Once Upon Your Dead Body tabbass tab
08Wake Up tabbass tab
09The Suffering tabbass tab
12The Willing Well: I - Fuel for the Feeding End tabbass tab
13The Willing Well: II - From Fear Through the Eyes of Madness tabbass tab
14The Willing Well: III - Apollo II: The Telling Truth tabbass tab
15The Willing Well: IV - The Final Cut tabbass tab

 

1