Search tabs:
Browse artists: 0-9 | A | B | C | D | E | F | G | H | I | J | K | L | M | N | O | P | Q | R | S | T | U | V | W | X | Y | Z
/ Coheed & Cambria / Good Apollo I'm Burning Star IV, Vol. 1: From Fear Through the Eyes of Madness (2005) / The Willing Well: I - Fuel for the Feeding End bass tab

THE WILLING WELL I: FUEL FOR THE FEEDING END (Bassline)
                        As recorded by Coheed and Cambria
(From the 2005 Album GOOD APOLLO, I'M BURNING STAR IV - VOLUME ONE: FROM FEAR THROUGH THE EYES OF MADNESS)

Words by Claudio Sanchez

Music by Coheed and Cambria

Gtr I (Db Ab Db Gb) - 'elec.'
Gtr II (Eb Ab Db Gb Bb Eb) - '2 keyboards arr. for 1'

 Intro
  Moderately Fast Q=168
 2/4       4/4
  Gtr I
  E E E E   E E E E E E E E   E E  E  E E  E E E
|---------|-----------------|--------------------|
|---------|-----------------|--------------------|
|---3-1-0-|---6-5---0-0---6-|-6------------------|
|---------|-------5---------|-----10-10---10-8-7-|


  +E   E E E E E E E   E E E E E E E E
|--------------------|-------------------|
|--------------------|-------------3-----|
|------6-5---0-0---6-|-6---3-0-3-5---5---|
|-(7)\-----5---------|-------------------|


  E E E E E E E E   E E  E  E E  E E E   +E   E E E E E E E   E E E E E E E E
|-----------------|--------------------|--------------------|-----------------||
|-----------------|--------------------|--------------------|-----------------||
|---6-5---0-0---6-|-6------------------|------6-5---0-0---6-|-6---3-----3---5-||
|-------5---------|-----10-10---10-8-7-|-(7)\-----5---------|-------0---------||


 Verse
  E E E E E E E E   E E  E  E E  E E E   +E   E E E E E E E   E E E E E E E E
|-----------------|--------------------|--------------------|-----------------|
|-----------------|--------------------|--------------------|-------------3---|
|---6-5---0-0---6-|-6------------------|------6-5---0-0---6-|-6---3-0-3-5---5-|
|-------5---------|-----10-10---10-8-7-|-(7)\-----5---------|-----------------|


  E E E E E E E E   E E  E  E E  E E E   +E   E E E E E E E   E E E E E E E E
|-----------------|--------------------|--------------------|-----------------|
|-----------------|--------------------|--------------------|-----------------|
|---6-5---0-0---6-|-6------------------|------6-5---0-0---6-|-6---3-----3---5-|
|-------5---------|-----10-10---10-8-7-|-(7)\-----5---------|-------0-0-------|


  E E E E E E E E   E E  E  E E  E E E   +E   E E E E E E E   E E E E E E E E
|-----------------|--------------------|--------------------|-----------------|
|-----------------|--------------------|--------------------|-------------3---|
|---6-5---0-0---6-|-6------------------|------6-5---0-0---6-|-6---3-0-3-5---5-|
|-------5---------|-----10-10---10-8-7-|-(7)\-----5---------|-----------------|


  E E E E E E E E   E E  E  E E  E E E   +E   E E E E E E E   E E E E E E E E
|-----------------|--------------------|--------------------|-----------------||
|-----------------|--------------------|--------------------|-----------------||
|---6-5---0-0---6-|-6------------------|------6-5---0-0---6-|-6---3-----3---5-||
|-------5---------|-----10-10---10-8-7-|-(7)\-----5---------|-------0---------||


 Pre-Chorus
  E E E E E E E E   E E E E E E E E   E E E E E E E E   E E E E E E E E
|-----------------|-----------------|-----------------|------------------|
|---4-2-0---------|---4-2-0---------|---4-2-0---------|------------------|
|---------4-4-0---|---------4-4-0---|---------4-4-0-5-|-4-0-5-4-0-3---5--|
|---------------2-|---------------2-|-----------------|------------------|


  E E E E E E E E   E E E E E E E E   E E E E E E E E   E E E E E E E E
|-----------------|-----------------|-----------------|------------------|
|---4-2-0---------|---4-2-0---------|---4-2-0---------|------------------|
|---------4-4-0---|---------4-4-0---|---------4-4-0---|-----7---5-5-7-3--|
|---------------2-|---------------2-|---------------2-|---7--------------|


  E E E E E E E E   E E E E E E E E   E E E E E E E E   E E E E E E E E
|-----------------|-----------------|-----------------|------------------|
|---4-2-0---------|---4-2-0---------|---4-2-0---------|------------------|
|---------4-4-0---|---------4-4-0---|---------4-4-0-5-|-4-0-5-4-0-3---5--|
|---------------2-|---------------2-|-----------------|------------------|


  E E E E E E E E   E E E E E E E E   E E E E E E E E   E E E E E E E E
|-----------------|-----------------|-----------------|------------------||
|-----------------|-----------------|-----------------|------------------||
|-----------------|-----------------|-----------------|---------0-3---5--||
|---7-9-9-9-9-9-9-|-7-7-7-7-4-4-4-4-|-5-5-5-5-5-5-5-5-|-5-5-5-5----------||


 Verse
  +E   E E E E E E E   E E  E  E E  E E E
|--------------------|--------------------|
|--------------------|--------------------|
|-(5)\-6-5---0-0---6-|-6------------------|
|----------5---------|-----10-10---10-8-7-|


  +E   E E E E E E E   E E E E E E E E
|--------------------|------------------|
|--------------------|-------------3----|
|------6-5---0-0---6-|-6---3-0-3-5---5--|
|-(7)\-----5---------|------------------|


  E E E E E E E E   E E  E  E E  E E E   +E   E E E E E E E   E E E E E E E E
|-----------------|--------------------|--------------------|-----------------|
|-----------------|--------------------|--------------------|-----------------|
|---6-5---0-0---6-|-6------------------|------6-5---0-0---6-|-6---3-----3---5-|
|-------5---------|-----10-10---10-8-7-|-(7)\-----5---------|-------0---------|


  E E E E E E E E   E E  E  E E  E E E   +E   E E E E E E E   E E E E E E Q
|-----------------|--------------------|--------------------|----------------|
|-----------------|--------------------|--------------------|----------------|
|---6-5---0-0---6-|-6------------------|------6-5---0-0---6-|-6---3-0---3----|
|-------5---------|-----10-10---10-8-7-|-(7)\-----5---------|----------------|


  Q  E E E E E E   E E  E  E E  E E E   +E   E E E E E E E
|----------------|--------------------|--------------------|
|----------------|--------------------|--------------------|
|----5---0-0---6-|-6------------------|------6-5---0-0---6-|
|------5---------|-----10-10---10-8-7-|-(7)\-----5---------|


                     7/8                 2/4
  E E E E E S S E E   E S S E E E S S E   S S E E E
|-------------------|-------------------|-----------||
|---------------3---|-------3---------3-|-----------||
|-6---3-0-3-5-5---5-|-3-5-5---5-3-5-5---|-5---3---5-||
|-------------------|-------------------|-----------||


 Pre-Chorus
 4/4
  E E E E E E E E   E E E E E E E E   E E E E E E E E   E E E E E E E E
|-----------------|-----------------|-----------------|-----------------|
|---4-2-0---------|---4-2-0---------|---4-2-0---------|-----------------|
|---------4-4-0---|---------4-4-0---|---------4-4-0-5-|-4-0-5-4-0-3---5-|
|---------------2-|---------------2-|-----------------|-----------------|


  E E E E E E E E   E E E E E E E E   E E E E E E E E   E E E E E E E E
|-----------------|-----------------|-----------------|------------------|
|---4-2-0---------|---4-2-0---------|---4-2-0---------|------------------|
|---------4-4-0---|---------4-4-0---|---------4-4-0---|-----7---5-5-7-3--|
|---------------2-|---------------2-|---------------2-|---7--------------|


  E E E E E E E E   E E E E E E E E   E E E E E E E E   E E E E E E E E
|-----------------|-----------------|-----------------|------------------|
|---4-2-0---------|---4-2-0---------|---4-2-0---------|------------------|
|---------4-4-0---|---------4-4-0---|---------4-4-0-5-|-4-0-5-4-0-3---5--|
|---------------2-|---------------2-|-----------------|------------------|


  E E E E E E E E   E E E E E E E E   E E E E E E E E
|-----------------|-----------------|-----------------|
|-----------------|-----------------|-----------------|
|-----------------|-----------------|-----------------|
|---7-9-9-9-9-9-9-|-7-7-7-7-4-4-4-4-|-5-5-5-5-5-5-5-5-|


  E E E E E E E E   E E E E E E E E   E E E E E E E E
|-----------------|-----------------|-----------------||
|-----------------|---------------5-|-4-0-5-4-0-5-4-0-||
|-----------------|---5-4-0-5-4-0---|-----------------||
|-5-5-5-5-5-5-5-5-|-----------------|-----------------||


   Chorus
    Slower Q=150
                                                          |-3-|
    E E Q  S E E E.   E E Q  S E E E.   E E Q  S E E E.   E E E E E E E Q    3x
||------------------|-----------------|-----------------|--------------------||
||o-----------------|-----------------|-----------------|---------5-4-------o||
||o-----------------|-----------------|-----------------|-------5-----5-7---o||
||--4-4------4-4----|-4-4------4-4----|-2-2------2-2----|-0-0-0--------------||


  E E Q  S E E E.   E E Q  S E E E.   E E E E E E E E
|-----------------|-----------------|-----------------|
|-----------------|-----------------|-----------------|
|-----------------|-4---------------|-----------------|
|-4-4------4-4----|---4------4-4----|-2-2-2-2-2-2-2-2-|


  E E E E E E E E   E E E E H
|-----------------|--------------||
|-----------------|--------------||
|-----------------|--------------||
|-5-5-5-5-5-5-5-5-|-5-5-5-5------||


 Interlude
  Faster Q=156
  E E E E E E E E   E E E E E E E E   E E E E E E E E   E E E E E E E E
|-----------------|-----------------|-----------------|------------------|
|-----7-----7-----|-7---------------|-----------------|------------------|
|-5-5---5-5---5-5-|---5-5-5-7-7-7-9-|-----9-----9-----|-9-------7--------|
|-----------------|-----------------|-9-9---9-9---9-9-|---9-9-9---9-7-9--|


  E E E E E E E E   E E E E E E E E   E E E E E E E E   E E E E E E  E  E
|-----------------|-----------------|-----------------|--------------------||
|-----------------|-----------------|-----------------|--------------------||
|-----7-----7-----|-7-------7-5-4-0-|-----5-----5-----|--------------------||
|-7-7---7-7---7-7-|---7-7-7---------|-5-5---5-5---5-5-|-5-5-7-7-9-9-11-11--||


 Bridge
  E E E E E E E E   E E E E E E E E   E E E E E E E E   E E E E E E E E
|-----------------|-----------------|-----------------|------------------|
|-----------------|-----------------|-----------------|------------------|
|-5-5-0-2-5-5-0-2-|-5-5-0-0-5-7-7-9-|-----9-----------|-----9-------5-7--|
|-----------------|-----------------|-9-9---9-9-9-9-9-|-9-9---9-7-9------|


  E E E E E E E E   E E E E E E E E   E E E E E E E E   E E E E E E E E
|-----------------|-----------------|-----------------|------------------|
|-----------------|-----------------|-----------------|------------------|
|-----7-------7---|-----------------|-----5-------5---|-----5---------4--|
|-7-7---7-7-7---7-|-7-7-7-7-7-7-7-7-|-5-5---5-5-5---5-|-5-5---5-5-7-7----|


  E E E E E E E E   E E E E E E E E   E E E E E E E E   E E E E E E E E
|-----------------|-----------------|-----------------|------------------|
|-----------------|-----------------|-----------------|------------------|
|-5-5-0-2-5-5-0-2-|-5-5-0-0-5-7-7-9-|-----9-----------|-----9-------5-7--|
|-----------------|-----------------|-9-9---9-9-9-9-9-|-9-9---9-7-9------|


  E E E E E E E E   E E E E E E E E   E E E E E E E E   E E E E E E  E  E
|-----------------|-----------------|-----------------|--------------------|
|-----------------|-----------------|-----------------|--------------------|
|-----7-------7---|-----7-------2-4-|-----5-----5-----|--------------------|
|-7-7---7-7-7---7-|-7-7---7-5-7-----|-5-5---5-5---5-5-|-5-5-7-7-9-9-11-11--|


   E  E E H     E    E  E H.         E  E H.         E  E E  E  E  E E  E
|-----------------|---------------|---------------|------------------------|
|-----------------|---------------|---------------|------------------------|
|-----------------|---------------|---------------|-13-----------------10--|
|-13-13--------13-|-13-13---------|-13-13---------|----13---13-13-15-------|


   E  E Q   H       E E H.        E E H.        E E E E E E E E
|-----------------|-------------|-------------|------------------|
|-----------------|-------------|-------------|------------------|
|-10-10----10\----|-------------|-------------|-------------5----|
|-----------------|-5-5---------|-5-5---------|-5-5---5-5-7---7--|


   E  E Q   Q.    E    E  E H.         E  E H.         E  E E  E  E  E E  E
|-------------------|---------------|---------------|------------------------|
|-------------------|---------------|---------------|------------------------|
|----------13\------|---------------|---------------|-13-----------------10--|
|-13-13----------13-|-13-13---------|-13-13---------|----13---13-13-15-------|


   E  E Q   H       E E H.        E E H.        E E E E E E E E
|-----------------|-------------|-------------|------------------||
|-----------------|-------------|-------------|------------------||
|-10-10----10\----|-------------|-------------|-------------5----||
|-----------------|-5-5---------|-5-5---------|-5-5---5-5-7---7--||


 Interlude
  W          +W           +W           +H      Q.   E
|----------|------------|------------|-----------------|
|----------|------------|------------|-----------------|
|----------|------------|------------|--------13\------|
|-8--------|-(8)--------|-(8)--------|-(8)-------------|


   E  E E  E  E  E E  E    E  E E  E  E E  Q
|-----------------------|---------------------|
|-----------------------|------------12-------|
|-----------------------|-12-12---12------12--|
|-12-12---12-12-12---12-|---------------------|

   E  E E  E  E  E  E  E    E  E  E  E  E  E  Q
|------------------------|-------------------------|
|------------------------|-------------------------|
|------------------------|-------12----------------|
|-12-12---12-12-12----12-|-12-12----12-12-12-14----|


  E E E E E E E E   E E  E  E  E E Q
|-----------------|-------------------|
|-----------------|-------------------|
|-----------------|-------------------|
|-8-8---8-8-8---8-|-8-8-10-12-10---8--|

  E E E E E E E E    E  E  E  E  E  E  E  E
|-----------------|--------------------------|
|-----------------|--------------------------|
|-----------------|--------------------------|
|-8-8---8-8-8---8-|--8--8-10-12-10--0--8-10--|

    E   E E   E  E  E E  E    E  E E  E  E E  Q
|--------------------------|---------------------|
|--------------------------|------------12-------|
|--------------------------|-12-12---12------12--|
|--12--12----12-12-12---12-|---------------------|


   E  E E  E  E  E  E  E    E  E  E  E  E  Q.
|------------------------|-------------------------||
|------------------------|-------------------------||
|------------------------|----12-12----12----------||
|-12-12---12-12-12----12-|-12-------12----12\------||



   Bridge
    E E E E Q  E E   E E E E E E E  E    H.      E  E   E  Q   E  Q   Q
||-----------------|------------------|---------------|-------------------||
||o----------------|------------------|---------------|------------------o||
||o----------------|------------------|---------------|------------------o||
||--7-7---7-7--7---|-7-7---7-7-7-9-11-|-12---------12-|---12--12-14--14---||


  E E E E Q  E E   E E E E E E E  E    H.      E  E   E  Q   E  E  E  E  E
|----------------|------------------|---------------|-----------------------|
|----------------|------------------|---------------|-----------------------|
|----------------|------------------|---------------|-----------------------|
|-7-7---7-7--7---|-7-7---7-7-7-9-11-|-12---------12-|---12--12-14-14-12-11--|


  E E E E Q  E E   E E E E E E E  E    H.      E  E   E  Q   E  E  E  E  E
|----------------|------------------|---------------|-----------------------||
|----------------|------------------|---------------|-----------------------||
|----------------|------------------|---------------|-----------------------||
|-7-7---7-7--7---|-7-7---7-7-7-9-11-|-12---------12-|---12--12-14-14-12-14--||


 Guitar Solo
 3/4
   E  E E E E E   E E E E E E   E E E E E E    Q   Q   E E
|---------------|-------------|-------------|--------------|
|---------------|-------------|-------------|--------------|
|-10-10---------|-------------|-------------|-12--12--12p0-|
|---------5-5-0-|-5-5---5-5-0-|-5-5---5-5-0-|--------------|


  E E E E E E   E E E E E E   E E E E E E   Q  Q  Q
|-------------|-------------|-------------|----------|
|-------------|-------------|-------------|----------|
|-------------|-------------|-0-0---0-0-2-|-5--5--5--|
|-5-5---5-5-0-|-5-5---5-5-0-|-------------|----------|


    E E E E E E   E E E E E E   E E E E E E    Q   Q   E E
||--------------|-------------|-------------|--------------|
||o-------------|-------------|-------------|--------------|
||o-------------|-------------|-------------|-12--12--12p0-|
||--5-5---5-5---|-5-5---5-5---|-5-5---5-5-0-|--------------|


  E E E E E E   E E E E E E   E E E E E E   Q  Q  E E
|-------------|-------------|-------------|------------||
|-------------|-------------|-------------|-----------o||
|-------------|-------------|-0-0-0-0-0-2-|-5--5--5p0-o||
|-5-5---5-5---|-5-5---5-5---|-------------|------------||


  E E E E E E   E E E E E E   E E E E E E    Q   Q   E E
|-------------|-------------|-------------|--------------|
|-------------|-------------|-------------|--------------|
|-------------|-------------|-------------|-12--12--12p0-|
|-5-5---5-5---|-5-5---5-5---|-5-5---5-5-0-|--------------|


  E E E E E E   E E E E E E   E E E E E E   Q  Q  E E
|-------------|-------------|-------------|-----------||
|-------------|-------------|-------------|-----------||
|-------------|-------------|-0-0---0-0-2-|-5--5--5p0-||
|-5-5---5-5---|-5-5---5-5-0-|-------------|-----------||


 Outro
  E E E E E E    E  E E E E E   E E E E E E   E E E E E E
|-------------|---------------|-------------|-------------|
|-------------|---------------|-------------|-------------|
|-------------|---------------|-7-7---0-0---|-7-7---0-0-2-|
|-0-0---7-7---|-12-12---0h7h9-|-------------|-------------|


  E E E E E E   E E E E E E   E E E E E E   E E E E E E
|-------------|-------------|-------------|-------------|
|-------------|-------------|-------------|-------------|
|-5-5---------|-5-5---------|-7-7---0-7---|-7-7---0-0-2-|
|-------0-0---|-------0h7h9-|-------------|-------------|


  E E E E E E   E E E E E E   E E E E E E   E E E E Q
|-------------|-------------|-------------|------------|
|-------------|-------------|-------------|------------|
|-5-5-----5---|-5-5---------|-7-7---0-7---|-7-7---0-0--|
|-------0-----|-------0h7h9-|-------------|------------|


  E E E E E E    E  E E E E E   E E E E E E   E E E E E E
|-------------|---------------|-------------|-------------|
|-------------|---------------|-------------|-------------|
|-------------|---------------|-7-7---0-7---|-7-7-7-7-7-0-|
|-0-0---0-0---|-12-12---0h7h9-|-------------|-------------|


   E   E E  E  E  E    E   E E  E  E  E    E   E E  E  E E    Q    Q   Q
|-------------------|-------------------|------------------|--------------|
|-------------------|-------------------|------------------|--------------|
|-------------------|-------------------|------------------|--------------|
|-12--12---12-12-12-|-12--12---12-12-12-|-12--12---12-12-0-|-14---14--14--|


   E  E E E E E     E  E E E E E     E  E E E E E     Q   Q   Q
|---------------|----------------|----------------|--------------|
|---------------|----------------|----------------|--------------|
|---------------|----------------|----------------|--------------|
|--7--7---7-7-7-|---7--7---7-7-7-|---7--7---7-7-7-|---7---9--11--|


   E   E E  E  E  E    E   E E  E  E  E    E   E E  E  E E    Q    Q  E  E
|-------------------|-------------------|------------------|---------------|
|-------------------|-------------------|------------------|---------------|
|-------------------|-------------------|------------------|---------------|
|-12--12---12-12-12-|-12--12---12-12-12-|-12--12---12-12-0-|-14---14----14-|


   E  E E E E E     E  E E E E E     E  E E E E E     Q   Q  Q
|---------------|----------------|----------------|-------------|
|---------------|----------------|----------------|-------------|
|---------------|----------------|----------------|-------------|
|--7--7---7-7-7-|---7--7---7-7-7-|---7--7---7-7-7-|---9---7--4--|


   E  E E E E E     E  E E E E E     E  E E E E E     E  E E E E E
|---------------|----------------|----------------|----------------|
|---------------|----------------|----------------|----------------|
|---------------|----------------|----------------|----------------|
|--5--5---5-5-5-|---5--5---5-5-5-|---5--5---5-5-5-|---5--5---5-5-7-|


   E  E E E E E     E  E E E E E     E  E E E E E     E  E E E E E
|---------------|----------------|----------------|----------------|
|---------------|----------------|----------------|----------------|
|--5--5---5-5-5-|---5--5---5-5-5-|---5--5---5-5-5-|---5--5-5-5-5-0-|
|---------------|----------------|----------------|----------------|


  E E E E E E   E E E E E E   E E E E E E   E E E E E E
|-------------|-------------|-------------|-------------|
|-------------|-------------|-------------|-------------|
|-5-5---5-5---|-5-5---------|-7-7---7-7---|-7-7---------|
|-------------|-------0h7h9-|-------------|-------0h7h9-|

  E E E E E E   E E E E E E   E E E E E E   E E E E E E
|-------------|-------------|-------------|-------------|
|-------------|-------------|-------------|-------------|
|-5-5---5-5---|-5-5---------|-7-7---7-7---|-7-7-7-7-7-0-|
|-------------|-------0h7h9-|-------------|-------------|


  E E E E E E   E E E E E E   E E E E E E   E E E E E E
|-------------|-------------|-------------|-------------|
|-------------|-------------|-------------|-------------|
|-5-5---------|-5-5---------|-7-7---0-7---|-7-7---------|
|-------0-0---|-------0h7h9-|-------------|-------0h7h9-|


  E E  E E E E   E E E E E E   E E E E E E   E E E E E E
|--------------|-------------|-------------|-------------|
|--------------|-------------|-------------|-------------|
|-5-5----------|-5-5---------|-7-7---0-7---|-7-7---7-7-0-|
|--------0-0---|-------0h7h9-|-------------|-------------|


   H.         +Q.   E E E    H.         +Q.   E E E
|----------|--------------|----------|--------------|
|----------|--------------|----------|--------------|
|--5-------|--(5)---------|--7-------|--(7)---------|
|----------|--------0h7h9-|----------|--------0h7h9-|


  H.        +Q.   E E E    H.        +H     E E
|---------|-------------|----------|------------|
|---------|-------------|----------|------------|
|-5-------|-(5)---------|--7-------|-(7)----9-7-|
|---------|-------0h7h9-|----------|------------|


  E E E E E E   E E E E E E   E E E E E E   E E E E E E
|-------------|-------------|-------------|-------------|
|-------------|-------------|-------------|-------------|
|-5-5---------|-5-5---------|-7-7---0-7---|-7-7---------|
|-------0-0---|-------0h7h9-|-------------|-------0h7h9-|


  E E  E E E E   E E E E E E   E E E E E E   Q  Q  Q
|--------------|-------------|-------------|----------|
|--------------|-------------|-------------|----------|
|-5-5------5---|-5-5---------|-7-7---0-7---|-7--7--7--|
|--------0-----|-------0h7h9-|-------------|----------|


   E   E E  E  E  E    E   E E  E  E  E    E   E E  E  E E    Q    E Q   E
|-------------------|-------------------|------------------|---------------|
|-------------------|-------------------|------------------|---------------|
|-------------------|-------------------|------------------|---------------|
|-12--12---12-12-12-|-12--12---12-12-12-|-12--12---12-12-0-|-14---14----14-|

   E  E E E E E     E  E E E E E     E  E E E E E     Q   Q   Q
|---------------|----------------|----------------|--------------|
|---------------|----------------|----------------|--------------|
|---------------|----------------|----------------|--------------|
|--7--7---7-7-7-|---7--7---7-7-7-|---7--7---7-7-7-|---7---9--11--|


   E   E E  E  E  E    E   E E  E  E  E    E   E E  E  E E    E   E Q.    E
|-------------------|-------------------|------------------|----------------|
|-------------------|-------------------|------------------|----------------|
|-------------------|-------------------|------------------|----------------|
|-12--12---12-12-12-|-12--12---12-12-12-|-12--12---12-12-0-|-14--14------14-|


   E  E E E E E     E  E E E E E     E  E E E E E     Q   Q  Q
|---------------|----------------|----------------|-------------|
|---------------|----------------|----------------|-------------|
|---------------|----------------|----------------|-------------|
|--7--7---7-7-7-|---7--7---7-7-7-|---7--7---7-7-7-|---9---7--4--|


   E  E E E E E     E  E E E E E     E  E E E E E     E  E E E E E
|---------------|----------------|----------------|----------------|
|---------------|----------------|----------------|----------------|
|---------------|----------------|----------------|----------------|
|--5--5---5-5-5-|---5--5---5-5-5-|---5--5---5-5-5-|---5--5---5-5-7-|


   E  E E E E E     E  E E E E E     E  E E E E E     E  E E E E E
|---------------|----------------|----------------|----------------|
|---------------|----------------|----------------|----------------|
|--5--5---5-5-5-|---5--5---5-5-5-|---5--5---5-5-5-|---5--5-5-5-5-0-|
|---------------|----------------|----------------|----------------|


    Slower Q=140
     H.             H.             H.         +H.     3x
||---------------|--------------|----------|----------||
||o--------------|--------------|----------|---------o||
||o--------------|--------------|----------|---------o||
||---4-----------|--2-----------|--5-------|--(5)-----||


  H.=H                          Free Time Q=100
   H.             H.             H.         +H.        +H.        +H.
|--------------|--------------|----------|-----------|----------|--------*|
|--------------|--------------|----------|-----------|----------|--------*|
|--------------|--------------|----------|-----------|----------|--------*|
|--4-----------|--2-----------|--5-------|--(5)------|-(5)------|-(5)----*|


Coheed & Cambria albums
2005 Good Apollo I'm Burning Star IV, Vol. 1: From Fear Through the Eyes of Madness
2003 In Keeping Secrets of Silent Earth: 3
2002 The Second Stage Turbine Blade
Good Apollo I'm Burning Star IV, Vol. 1: From Fear Through the Eyes of Madness tabs
01Keeping the Blade tabbass tab
02Always & Never tabbass tab
03Welcome Home tabbass tab
05Crossing the Frame tabbass tab
06Apollo I: The Writing Writer tabbass tab
07Once Upon Your Dead Body tabbass tab
08Wake Up tabbass tab
09The Suffering tabbass tab
12The Willing Well: I - Fuel for the Feeding End tabbass tab
13The Willing Well: II - From Fear Through the Eyes of Madness tabbass tab
14The Willing Well: III - Apollo II: The Telling Truth tabbass tab
15The Willing Well: IV - The Final Cut tabbass tab

 

1