Search tabs:
Browse artists: 0-9 | A | B | C | D | E | F | G | H | I | J | K | L | M | N | O | P | Q | R | S | T | U | V | W | X | Y | Z
/ Death Cab for Cutie / Plans (2005) / Crooked Teeth bass tab

Death Cab for Cutie : Crooked Teeth : Plans
Submitter : Lord_Davkas (ThunderStruck5a@aol.com)
Tabber : Michael Leslie (squierbass@comcast.net)

http://www.corock.tk
------------------------------------------

This is a great song off of an amazing cd. This is one of the very
few Death Cab songs that has a strong bass line that shines through
the rest of the music. I am pretty sure that this tab is correct, I
had trouble with the chorus so I found a part that works, and I also
added in some passing tones of my own that make the different parts
of the song flow together. Please email with any corrections at
squierbass@comcast.net  Have fun with it.

Intro- No Bass

     Verse 1     (0:19)
G|------------------------------------------|
D|-4-4-4-4----------------------------------|   x2
A|------------2-2-2-2--5-5-5-5--------------|
E|-----------------------------------5-5-3-4|

                    (0:29)
G|-------2-4----------------------------------|
D|-4-4-------------4-3------------------------|   x4
A|------------2-2---------5-5-3-4---3-3-2-0---|
E|--------------------------------------------|

                    (0:38)
   Prechorus
G|------------------------------------------|
D|-4---4---3---3----------------------------|
A|--------------------5---5---2---2---------|
E|------------------------------------------|

G|-----------------------------------------|
D|-4---4---3---3-------------2---2---------|
A|--------------------5---5----------------|
E|-----------------------------------------|

      Chorus        (0:48)
G|-----------------------------------|
D|---4-4-4-4-------------------------| x3
A|-----------------------------------|
E|----------------5-5-5-5--7-7-7-7---|

G|--------------------------------------------|
D|---4-4-4-4----------------------------------|
A|--------------------------------------------|
E|----------------5-5-5-5--7-7-7-7--5-5-3-4---|

     Verse 2      (1:02)
G|-------2-4---------------------------------|
D|-4-4-------------4-3-----------------------|   x9
A|------------2-2---------5-5-3-4---3-3-2-0--|
E|-------------------------------------------|

    Prechorus          (1:49)
G|------------------------------------------|
D|-4---4---3---3----------------------------|
A|--------------------5---5---2---2---------|
E|------------------------------------------|

G|-----------------------------------------|
D|-4---4---3---3-------------2---2---------|
A|--------------------5---5----------------|
E|-----------------------------------------|

     Chorus           (1:58)
G|-----------------------------------|
D|---4-4-4-4-------------------------| x4
A|-----------------------------------|
E|----------------5-5-5-5--7-7-7-7---|

    Bridge        (2:14)
G|-------------------------------------|
D|---4---------------------------------|
A|-------------------------------------|
E|----------7-------2-------3----------|

Outro           (2:31)
G|--------------------------------------------|
D|---4-4-4-4----------------------------------| Until End
A|--------------------------------------------|
E|----------------5-5-5-5--7-7-7-7--5-5-5-5---|


Death Cab for Cutie albums
2005 Plans
2003 Transatlanticism
2002 You Can Play These Songs With Chords
2001 The Photo Album
2000 Forbidden Love [EP]
2000 We Have the Facts and We're Voting Yes
1999 Something About Airplanes
Plans tabs
01Marching Bands of Manhattan tabbass tab
02Soul Meets Body tabbass tab
03Summer Skin tabbass tab
04Different Names for the Same Thing tabbass tab
05I Will Follow You into the Dark tabbass tab
06Your Heart Is an Empty Room tabbass tab
07Someday You Will Be Loved tabbass tab
08Crooked Teeth tabbass tab
09What Sarah Said tabbass tab
11Stable Song tabbass tab

 

1