Search tabs:
Browse artists: 0-9 | A | B | C | D | E | F | G | H | I | J | K | L | M | N | O | P | Q | R | S | T | U | V | W | X | Y | Z
/ Death Cab for Cutie / Plans (2005) / Different Names for the Same Thing bass tab

Death Cab for Cutie : Different Names for the Same Thing : Plans
Submitter : Lord_Davkas (ThunderStruck5a@aol.com)
Tabber : Paul Welsh (Welshp1@lasalle.edu

http://www.corock.tk
------------------------------------------

This Song is played in standard Tuning (GDAE)
As usual for Death Cab this song is pretty simple but the changes are fast and at odd intervals
Feel free to contact me at Welshp1@lasalle.edu
/ - Slide Up
\ - Slide Down
h - hammer on (hit note)

Riff A
G|----------------------------------------------|
D|-----------------------------------4----------|
A|---5-h5-/9-\5--5-5---5-5-5-5-5----5----h4-5---|
E|----------------------------------------------|

Riff B
G|--------------------------------------------------------------------------------------|
D|-----------------------------------------------------------------------------4--------|
A|--2-2-2-2-2-2------------------------------5-h5-/9-\5--5-5---5-5-5-5-5-----5----h4-5--|
E|----------------2-2-2-2-2-2--3-3-3-3-3-3----------------------------------------------|

Riff C
G|---------------------------------------------------------|
D|---------------------------------------------------------|
A|---2-2-2-2-2-2-------------------------------------------|
E|-----------------2-2-2-2-2-2--3-3-3-3-3-3--5-5-5-5-5-5---|

Order (Bass does not come in until late in the song at 2:17)
Riff A  2:17    x10
Riff B  3:00    x2
Riff C  3:21    x3
Riff B  3:46    x1
Riff A  3:56    x1
Riff B  4:01    x2
Riff C  4:22    x1
Riff B  4:30    x1
Riff A  4:41    x3
Hold and Fade Out On
G|-------|
D|-------|
A|---5---|
E|-------|


Death Cab for Cutie albums
2005 Plans
2003 Transatlanticism
2002 You Can Play These Songs With Chords
2001 The Photo Album
2000 Forbidden Love [EP]
2000 We Have the Facts and We're Voting Yes
1999 Something About Airplanes
Plans tabs
01Marching Bands of Manhattan tabbass tab
02Soul Meets Body tabbass tab
03Summer Skin tabbass tab
04Different Names for the Same Thing tabbass tab
05I Will Follow You into the Dark tabbass tab
06Your Heart Is an Empty Room tabbass tab
07Someday You Will Be Loved tabbass tab
08Crooked Teeth tabbass tab
09What Sarah Said tabbass tab
11Stable Song tabbass tab

 

1