Search tabs:
Browse artists: 0-9 | A | B | C | D | E | F | G | H | I | J | K | L | M | N | O | P | Q | R | S | T | U | V | W | X | Y | Z
/ Dimmu Borgir / Godless Savage Garden (1998) / Metal Heart bass tab

Listen For Timing

G||------------------------------|------------------------------|
D||------------------------------|------------------------------|
A||------------------------------|------------------------------|
E||------------------------------|------------------------------|



--------------------------------|-----------------------------------------|
--------------------------------|-----------------------------------------|
--5----------------3------------|------7---------3---------2--------------|
--------------------------------|-----------------------------------------|



---------------------------------|---------------------------------|
---------------------------------|---------------------------------|
--7--------3--------7------------|------7--------3--------7--------|
---------------------------------|---------------------------------|



--------------------------------|---------------------------------------------|
--------------------------------|---------------------------------------------|
--5----------------3------------|------7---7---7---3---3---3---2--------------|
--------------------------------|---------------------------------------------|



----------|------------------------------|------------------------------|
----------|--5---------------------------|--6---------------------------|
----------|-----3-3-3--3-3-3--3-3-3--3-3-|-----3-3-3--3-3-3--3-3-3--3-3-|
----------|------------------------------|------------------------------|



------------------------------|-------------------------|
--5---------------------------|--6-------------5--------|
-----3-3-3--3-3-3--3-3-3--3-3-|-----3-3-3--3-3----------|
------------------------------|-------------------------|



------------------------------|------------------------------|
--5---------------------------|--6---------------------------|
-----3-3-3--3-3-3--3-3-3--3-3-|-----3-3-3--3-3-3--3-3-3--3-3-|
------------------------------|------------------------------|



------------------------------|-------------------------|
--5---------------------------|--6-------------5--------|
-----3-3-3--3-3-3--3-3-3--3-3-|-----3-3-3--3-3----------|
------------------------------|-------------------------|



------------------------------|------------------------------|
------------------------------|------------------------------|
--3--3-3-3--3-3-3--3-3-3--3-3-|--3--3-3-3--3-3-3--3-3-3--3-3-|
------------------------------|------------------------------|



------------------------------|--------------------|
------------------------------|--------------------|
--3--3-3-3--3-3-3--3-3-3------|--------------------|
--------------------------3h4-|--4--------3--------|



------------------------------|------------------------------|
------------------------------|------------------------------|
--3--3-3-3--3-3-3--3-3-3--3-3-|--3--3-3-3--3-3-3--3-3-3--3-3-|
------------------------------|------------------------------|



--------------------|--------------------|------------------------------|
--------------------|--------------------|------------------------------|
--3-----------------|--6-----------------|--3--3-3-3--3-3-3--3-3-3--3-3-|
-------4------------|-------6------------|------------------------------|



------------------------------|------------------------------|
------------------------------|------------------------------|
--3--3-3-3--3-3-3--3-3-3--3-3-|--3--3-3-3--3-3-3--3-3-3------|
------------------------------|--------------------------3h4-|



--------------------|------------------------------|
--------------------|------------------------------|
--------------------|--3--3-3-3--3-3-3--3-3-3--3-3-|
--4--------3--------|------------------------------|



------------------------------|--------------------|-------------------|
------------------------------|--------------------|-------------------|
--3--3-3-3--3-3-3--3-3-3--3-3-|--3-----------------|-------------------|
------------------------------|-------4------------|--3----------------|



--------------------------|--------------------------|-----------------------|
--------------------------|--------------------------|-----------------------|
--0-------0--0--0-0-0--0--|--3---2---3--0--0-0-0--0--|--7---5---8--7---------|
------3-------------------|--------------------------|------------------5----|



-------------------------|--------------------------|--------------------------|
-------------------------|--------------------------|--------------------------|
-------------------------|--0-------0--0--0-0-0--0--|--3---2---3--0--0-0-0--0--|
--3--------3-3-0-0-3/4---|------3-------------------|--------------------------|



-----------------------|-------------------|------------------------------|
-----------------------|-------------------|--5---------------------------|
--7---5---8--7---------|-------------------|-----3-3-3--3-3-3--3-3-3--3-3-|
------------------5----|--3----------------|------------------------------|



------------------------------|------------------------------|
--6---------------------------|--5---------------------------|
-----3-3-3--3-3-3--3-3-3--3-3-|-----3-3-3--3-3-3--3-3-3--3-3-|
------------------------------|------------------------------|



-------------------------|------------------------------|
--6-------------5--------|------------------------------|
-----3-3-3--3-3----------|--3--3-3-3--3-3-3--3-3-3--3-3-|
-------------------------|------------------------------|



------------------------------|--------------------|--------------------|
------------------------------|--------------------|--------------------|
--3--3-3-3--3-3-3--3-3-3--3-3-|--3-----------------|--6-----------------|
------------------------------|-------4------------|-------6------------|



------------------------------|------------------------------|
------------------------------|------------------------------|
--3--3-3-3--3-3-3--3-3-3--3-3-|--3--3-3-3--3-3-3--3-3-3--3-3-|
------------------------------|------------------------------|



--------------------|-------------------|--------------------------|
--------------------|-------------------|--------------------------|
--3-----------------|-------------------|--0-------0--0--0-0-0--0--|
-------4------------|--3----------------|------3-------------------|



--------------------------|-----------------------|-------------------------|
--------------------------|-----------------------|-------------------------|
--3---2---3--0--0-0-0--0--|--7---5---8--7---------|-------------------------|
--------------------------|------------------5----|--3--------3-3-0-0-3/4---|



--------------------------|--------------------------|-----------------------|
--------------------------|--------------------------|-----------------------|
--0-------0--0--0-0-0--0--|--3---2---3--0--0-0-0--0--|--7---5---8--7---------|
------3-------------------|--------------------------|------------------5----|



-------------------|------------------------------|
-------------------|------------------------------|
-------------------|------------------------------|
--3----------------|--0--0-0-0--0-0-0--0-0-0--0-0-|



------------------------------|------------------------------|
------------------------------|------------------------------|
------------------------------|------------------------------|
--0--0-0-0--0-0-0--0-0-0--0-0-|--0--0-0-0--0-0-0--0-0-0--0-0-|



------------------------------|------------------------------|
------------------------------|------------------------------|
--3--3-3-3--3-3-2--2-2-6--6-6-|------------------------------|
------------------------------|--0--0-0-0--0-0-0--0-0-0--0-0-|



------------------------------|--------------------|--------------------|
------------------------------|--2-----------------|--5-----------------|
------------------------------|-------3------------|-------5------------|
--0--0-0-0--0-0-0--0-0-0--0-0-|--------------------|--------------------|



------------------|------------------------------|
------------------|------------------------------|
------------------|--3--3-3-3--3-3-3--3-3-3--3-3-|
------------------|------------------------------|



------------------------------|------------------------------|
------------------------------|------------------------------|
------------------------------|--3--3-3-3--3-3-3--3-3-3--3-3-|
--3--3-3-3--3-3-3--3-3-3--3-3-|------------------------------|



------------------------------|------------------------------|
------------------------------|------------------------------|
------------------------------|--3--3-3-3--3-3-3--3-3-3--3-3-|
--3--3-3-3--3-3-3--3-3-3--3-3-|------------------------------|



------------------------------|------------------------------|
------------------------------|------------------------------|
------------------------------|--3--3-3-3--3-3---------------|
--3--3-3-3--3-3-3--3-3-3--3-3-|----------------6--6-6-6--6-6-|



------------------------------|------------------------------|
------------------------------|------------------------------|
--6--6-6-6--6-6-6--6-6-6--6-6-|------------------------------|
------------------------------|--6--6-6-6--6-6-6--6-6-7--7-7-|



------------------------------|-------------------|------------------|
------------------------------|-------------------|------------------|
------------------------------|-------------------|------------------|
--8--8-8-8--8-8-8--8-8-8--8-8-|--3----------------|------------------|



------------------|------------------|------------------|------------------|
------------------|------------------|------------------|------------------|
------------------|------------------|------------------|------------------|
------------------|------------------|------------------|------------------|



------------------|------------------|------------------|------------------|
------------------|------------------|------------------|------------------|
------------------|------------------|------------------|------------------|
------------------|------------------|------------------|------------------|



------------------|------------------|------------------|------------------|
------------------|------------------|------------------|------------------|
------------------|------------------|------------------|------------------|
------------------|------------------|------------------|------------------|



------------------|------------------|------------------|------------------|
------------------|------------------|------------------|------------------|
------------------|------------------|------------------|------------------|
------------------|------------------|------------------|------------------|



------------------|------------------|------------------------------|
------------------|------------------|------------------------------|
------------------|------------------|--3--3-3-3--3-3-3--3-3-3--3-3-|
------------------|------------------|------------------------------|



------------------------------|------------------------------|
------------------------------|------------------------------|
------------------------------|--3--3-3-3--3-3---------------|
--3--3-3-3--3-3-3--3-3-3--3-3-|----------------6--6-6-6--6-6-|



------------------------------|------------------------------|
------------------------------|------------------------------|
--6--6-6-6--6-6-6--6-6-6--6-6-|------------------------------|
------------------------------|--6--6-6-6--6-6-6--6-6-7--7-7-|



------------------------------|----------------------------|
------------------------------|----------------------------|
------------------------------|----------------------------|
--8--8-8-8--8-8-8--8-8-8--8-8-|--3--3-3---3-3-3--3-3---3-3-|



----------------------------|------------------------------|
----------------------------|------------------------------|
----------------------------|------------------------------|
--3--3-3---3-3-3--3-3---3-3-|--3-3-3--3-3-3--3-3-3--3-3-3--|



----------------------------------|--------------------------|
----------------------------------|--------------------------|
----------------------------------|--0-------0--0--0-0-0--0--|
--3-3-3-3-3-3-3-3-3-3-3-3-3-3-3-3-|------3-------------------|



--------------------------|-----------------------|-------------------------|
--------------------------|-----------------------|-------------------------|
--3---2---3--0--0-0-0--0--|--7---5---8--7---------|-------------------------|
--------------------------|------------------5----|--3--------3-3-0-0-3/4---|



--------------------------|--------------------------|-----------------------|
--------------------------|--------------------------|-----------------------|
--0-------0--0--0-0-0--0--|--3---2---3--0--0-0-0--0--|--7---5---8--7---------|
------3-------------------|--------------------------|------------------5----|



---------------------|--------------------------|--------------------------|
---------------------|--------------------------|--------------------------|
---------------------|--0-------0--0--0-0-0--0--|--3---2---3--0--0-0-0--0--|
--3------------3-4---|------3-------------------|--------------------------|



-----------------------|-------------------------|--------------------------|
-----------------------|-------------------------|--------------------------|
--7---5---8--7---------|-------------------------|--0-------0--0--0-0-0--0--|
------------------5----|--3--------3-3-0-0-3/4---|------3-------------------|



--------------------------|-----------------------|-------------------|
--------------------------|-----------------------|-------------------|
--3---2---3--0--0-0-0--0--|--7---5---8--7---------|-------------------|
--------------------------|------------------5----|--3----------------|



------------------|------------------|------------------|---------------------||
------------------|------------------|------------------|---------------------||
------------------|------------------|------------------|----------0----------||
------------------|------------------|------------------|--------------3---5/-||


Dimmu Borgir albums
2003 Death Cult Armageddon
2001 Puritanical Euphoric Misanthropia
1999 Devil's Path/In the Shades of Life
1999 Spiritual Black Dimensions
1998 Godless Savage Garden
1997 Enthrone Darkness Triumphant
1994 For All Tid
Godless Savage Garden tabs
01Moonchild Domain tabbass tab
02Hunnerkongen (Re-Recorded Version) tabbass tab
03Chaos Without Prophecy tabbass tab
04Raabjorn Speiler Draugheimens Skodde (Re-Recorded Version) tabbass tab
05Metal Heart tabbass tab
06Stormblast (live) tabbass tab

 

1