Search tabs:
Browse artists: 0-9 | A | B | C | D | E | F | G | H | I | J | K | L | M | N | O | P | Q | R | S | T | U | V | W | X | Y | Z
/ Jack Johnson / In Between Dreams (2005) / Banana Pancakes bass tab

BANANA PANCKAES (Bassline)
                           As recorded by Jack Johnson
                     (From the 2005 Album IN BETWEEN DREAMS)

Words and Music by Jack Johnson
Arranged by Jack Johnson
Transcribed by Spinningobo

Gtr I (E A D G) - 'Untitled'

 Intro
  Q=170
  N.C.
 12/8
  Gtr I
  Wx8              H.      Q  E Q  E
|----------------|-------------------||
|----------------|-------------------||
|----------------|---------5----5----||
|----------------|-------------------||


   Verse
    Q.   Q  E Q.   Q  E   Q.   Q  E Q  E Q  E
||----------------------|----------------------||-|
||o---------------------|---------------------o||-|
||o-----------5-------5-|-----------3----3--3-o||-|
||--3-------3-----------|-5-------5------------||-|


    Q.   Q  E Q.   Q  E   Q.   Q  E Q  E Q  E
||----------------------|-----------------------||
||o---------------------|----------------------o||
||o-----------5-------5-|-----------3----3-----o||
||--3-------3-----------|-5-------5-------------||


 Chorus
  Q.   Q  E Q.   Q  E   Q.   Q  E Q  E Q  E
|---------------------|---------------------|
|---------------------|---------------------|
|---------------------|------2--5-2---------|
|-5-------5-5-------5-|-5------------5-3--0-|


  Q.   Q  E Q.   Q  E   Q.   Q  E Q  E Q  E
|---------------------|------------------------|
|---------------------|------------------------|
|---------------------|------2--5-2------------|
|-3-------3-3-------3-|-3------------5-3--0----|


  Q.   Q  E Q.   Q  E   Q.   Q  E Q  E Q  E
|---------------------|---------------------|
|---------------------|---------------------|
|---------------------|------2--5-2---------|
|-5-------5-5-------5-|-5------------5-3--0-|


  Q.   Q  E Q.   Q  E   Q.   Q.   Q  E Q  E
|---------------------|------------------------||
|---------------------|------------------------||
|---------------------|-----------5----5-------||
|-3-------3-3-------3-|-3----------------------||


   Verse
    Q.   Q  E Q.   Q  E   Q.   Q  E Q  E Q  E  3x
||----------------------|----------------------||
||o---------------------|---------------------o||
||o-----------5-------5-|-----------3----3--3-o||
||--3-------3-----------|-5-------5------------||


  Q.   Q  E Q.   Q  E   Q.   Q  E Q  E Q  E
|---------------------|-----------------------||
|---------------------|-----------------------||
|-----------5-------5-|-----------3----3------||
|-3-------3-----------|-5-------5-------------||


 Chorus
  Q.   Q  E Q.   Q  E   Q.   Q  E Q  E Q  E
|---------------------|---------------------|
|---------------------|---------------------|
|---------------------|------2--5-2---------|
|-5-------5-5-------5-|-5------------5-3--0-|


  Q.   Q  E Q.   Q  E   Q.   Q  E Q  E Q  E
|---------------------|------------------------|
|---------------------|------------------------|
|---------------------|------2--5-2------------|
|-3-------3-3-------3-|-3------------5-3--0----|


  Q.   Q  E Q.   Q  E   Q.   Q  E Q  E Q  E
|---------------------|---------------------|
|---------------------|---------------------|
|---------------------|------2--5-2---------|
|-5-------5-5-------5-|-5------------5-3--0-|


  Q.   Q  E Q.   Q  E   Q.   Q  E Q.   Q.
|---------------------|----------------------||
|---------------------|----------------------||
|---------------------|-----------5----------||
|-3-------3-3-------3-|-3-------3------3-----||


   Interlude
    Q.   Q  E Q.   Q  E   Q.   Q  E Q.   Q  E
||----------------------|---------------------|
||o---------------------|---------------------|
||o---------------------|-----------7---------|
||--5-------5-5-------5-|-5-------5------5----|


  Q.   Q  E Q.   Q  E   Q.   Q  E Q.   Q  E
|---------------------|------------------------||
|---------------------|-----------------------o||
|---------------------|-----------5-----------o||
|-3-------3-3-------3-|-3-------3------3-------||


 Bridge
  Q.   Q  E Q.   Q  E   Q.   Q  E Q  E Q E
|---------------------|---------------------|
|---------------------|---------------------|
|---------------------|----------------7----|
|-5-------5-5-------5-|-5-------5-5--5------|


  Q.   Q  E Q.   Q  E   Q.   Q  E Q  E Q  E
|---------------------|------------------------|
|---------------------|------------------------|
|-5-------5-5-------5-|-5-------5-5--5---------|
|---------------------|----------------7-------|


  Q.   Q  E Q.   Q  E   Q.   Q  E Q  E Q.
|---------------------|---------------------|
|---------------------|---------------------|
|---------------------|----------------7----|
|-5-------5-5-------5-|-5-------5-5--5------|


  Q.   Q  E Q.   Q  E   Q.   Q  E Q  E Q  E
|---------------------|------------------------|
|---------------------|------------------------|
|-5-------5-5-------5-|-5-------5-5--5---------|
|---------------------|----------------8-------|


  Q.   Q  E Q.   Q  E   Q.   Q  E Q.   Q  E
|---------------------|---------------------|
|---------------------|---------------------|
|---------------------|---------------------|
|-7-------7-7-------7-|-7-------7-7-------7-|


  Q.   Q  E Q.   Q  E   Q.   Q  E Q.   Q  E
|---------------------|------------------------|
|---------------------|------------------------|
|-7-------7-5-------5-|-3-------3-3-------3----|
|---------------------|------------------------|


  Q.   Q  E Q.   Q  E   Q.   Q  E Q.   Q  E
|---------------------|---------------------|
|-5-------5-5-------5-|---------------------|
|---------------------|-5-------5-5-------5-|
|---------------------|---------------------|


  Q.   Q  E Q.   Q  E   Q.   Q.   Q  E Q  E
|---------------------|------------------------||
|-5-------5-5-------5-|-5----------------------||
|---------------------|-----------5----5-------||
|---------------------|------------------------||


   Verse
    Q.   Q  E Q.   Q  E   Q.   Q  E Q  E Q  E
||----------------------|----------------------||-|
||o---------------------|---------------------o||-|
||o-----------5-------5-|-----------3----3----o||-|
||--3-------3-----------|-5-------5---------5--||-|


    Q.   Q  E Q.   Q  E   Q.   Q  E Q  E Q  E
||----------------------|-----------------------||
||o---------------------|----------------------o||
||o-----------5-------5-|-----------3----3-----o||
||--3-------3-----------|-5-------5-------------||


 Chorus
  Q.   Q  E Q.   Q  E   Q.   Q  E Q  E Q  E
|---------------------|---------------------|
|---------------------|---------------------|
|---------------------|------2--5-2---------|
|-5-------5-5-------5-|-5------------5-3--0-|


  Q.   Q  E Q.   Q  E   Q.   Q  E Q  E Q  E
|---------------------|------------------------|
|---------------------|------------------------|
|---------------------|------2--5-2------------|
|-3-------3-3-------3-|-3------------5-3--0----|


  Q.   Q  E Q.   Q  E   Q.   Q  E Q  E Q  E
|---------------------|---------------------|
|---------------------|---------------------|
|---------------------|------2--5-2---------|
|-5-------5-5-------5-|-5------------5-3--0-|


  Q.   Q  E Q.   Q  E   Q.   Q  E Q.   Q  E
|---------------------|------------------------||
|---------------------|------------------------||
|---------------------|-----------5------------||
|-3-------3-3-------3-|-3-------3------3-------||


 Outro
  Q.   Q  E Q.   Q  E   Q.   Q  E Q.   Q  E
|---------------------|---------------------|
|---------------------|---------------------|
|---------------------|-----------7---------|
|-5-------5-5-------5-|-5-------5------5----|


  Q.   Q  E Q.   Q  E   Q.   Q  E Q.   Q  E
|---------------------|------------------------|
|---------------------|------------------------|
|---------------------|-----------5------------|
|-3-------3-3-------3-|-3-------3------3-------|


  Q.   Q  E Q.   Q  E   Q.   Q  E Q.   Q  E   W.              +W.
|---------------------|---------------------|---------------|--------*|
|---------------------|---------------------|-5-------------|-(5)----*|
|---------------------|-----------7---------|---------------|--------*|
|-5-------5-5-------5-|-5-------5------5----|---------------|--------*|


Jack Johnson albums
2005 In Between Dreams
2003 Thicker Than Water: Original Soundtrack
2003 On and On
2001 Brushfire Fairytales
In Between Dreams tabs
01Better Together tabbass tab
02Never Know tabbass tab
03Banana Pancakes tabbass tab
04Good People tabbass tab
05No Other Way tabbass tab
06Sitting, Waiting, Wishing tabbass tab
07Staple It Together tabbass tab
08Situations tabbass tab
09Crying Shame tabbass tab
10If I Could tabbass tab
11Breakdown tabbass tab
12Belle tabbass tab
13Do You Remember tabbass tab
14Constellations tabbass tab

 

1