Search tabs:
Browse artists: 0-9 | A | B | C | D | E | F | G | H | I | J | K | L | M | N | O | P | Q | R | S | T | U | V | W | X | Y | Z
/ Jeff Buckley / Grace (1994) / Grace bass tab

Artist / Author : Jeff Buckley / J. Buckley and G. Lucas
Title: Grace
Album: Grace
Transcribed by: tipoune
Email: gregorysimonet@yahoo.com



#-----------------------------------------------------------------------------#
                                BASS TABLATURE
#-----------------------------------------------------------------------------#

Updated version (August, the 12th 2000)

G--|-------------------|---------------------------|--------------------------
D--|-------------------|---------------------------|-----------------9h11-----
A--|-------------------|-------5---------0-2-2-4h5-|-------5------------------
D--|-2-0h2-0h2-0h2-0h2-|-0-0-0---0-0-4-5-----------|-0-0-0---0-0-4-5----------


                                              There's the moon asking ...
-----|---------------------------|------------|-----|-------|-------|-------|-
-7h9-|---------------------------|------------|-----|-------|-------|-------|-
-----|-----------------5---------|------------|-----|-------|-------|-------|-
-----|-0-0-0-0-0-0-7-9---7-0-5h7-|-0-0-0-12-0-|-2-2-|-3-3-2-|-1-1-5-|-3-2-5-|-



-------|---|------------------------------------------------------------------
-------|---|------------------------------------------------------------------
-------|---|------------------------------------------------------------------
-1-1-1-|-2-|------------------------------------------------------------------


    My fading voice sings of love...
---||-------------------|----------------------|---||-------------------------
---||---------------7-7-|-9---5-7---7-5h7------|---||-------------------------
---||-7-7-9-9-10-10-----|---9-----9-------9h10-|---||-------------------------
---||-------------------|----------------------|-2-||-------------------------


    Wait in the fire...
---||-----------||---|---|-------|---------------|----------------------------
---||-----------||---|---|-10/12-|---------------|----------------------------
---||-8-7-------||---|---|-------|---------------|-------5-------------0-2----
---||-----1-5-1-||-2-|-3-|-------|-2-0h2-0h2-0h2-|-0-0-0---0-0-0-0-0-4--------

                                                                And she weeps
-----|---------------------------------------------|------------|-----|-------
-----|---------------------------------------------|------------|-----|-------
-4h5-|-------------7h9-5h7-4h5-------------7h9-5h7-|------------|-----|-------
-----|-0-0-0-0-0-0-------------0-0-0-0-0-0---------|-0-0-12-0-0-|-2-2-|-3-3---



--|-------|-------|-----|---|-------------------------------------------------
--|-------|-------|-----|---|-------------------------------------------------
--|-------|-------|-----|---|-------------------------------------------------
-2|-1-1-5-|-3-3-2-|-1-1-|-2-|-------------------------------------------------



---||-------------------|----------------------|-----------||-----------------
---||---------------7-7-|-9---5-7---7-5h7------|-----------||-----------------
---||-7-7-9-9-10-10-----|---9-----9-------9h10-|-7---------||-----------------
---||-------------------|----------------------|---2-2-2-2-||-----------------



---|-----|-----------|-----|-----|---------------------------|----------------
---|-----|---5---8-5-|-----|-----|---------------------------|---8-5----------
---|-----|-----7-----|-----|-----|---------------------------|-6-----6-6-6-8--
---|-3-2-|-1---------|-3-2-|-1-1-|-2-2-2-2-2-2-2-2-2-2-2-2-2-|----------------



---------------|-------------------------------------|-----------------|------
---------------|-------------------------------------|-----------------|------
-8-8-8-8-8-8-8-|-10-10-10-10-10-10-10-10-10-10-10-10-|-9-9-9-9-9-9-8-7-|-6/7--
---------------|-------------------------------------|-----------------|------



------------|---------------------------|-----------------|-------------------
------------|---------------------7---7-|-9---9-10-7------|------9-11-7-11----
------------|-7---7-9---9-10---10-------|---9--------10-9-|-7-10--------------
-0-2-2-2/14-|---9-----9------9------9---|-----------------|-------------------



------------------|-----------------|-----------------|-----------------|---|-
-12-9-12-14-11----|-9---9-12-7------|-----------------|-----9-10-7------|---|-
---------------12-|---9--------10-9-|-----------------|---9--------10-9-|-7-|-
------------------|-----------------|-2-5-4-4-5-5-4-7-|-9---------------|---|-



-------|-------------|---|---------------------------|------------------------
-------|-10/12-10/12-|---|---------------------------|------------------------
-------|-------------|---|-------5---------0-2-2-4h5-|-------5-----5-----4h5--
-------|-------------|-2-|-0-0-0---0-0-4-5-----------|-0-0-0---0-0---0-0------


                                                             And I feel them..
---------|-----------------------------|-----------|---------|----------|-----
---------|-----------------------------|-----------|---------|----------|-----
-2h4-0h2-|-------5-------5-7h9-7-5-----|-----5-5---|-7-7-7-7-|-8-8-7-10-|-6---
---------|-0-0-0---0-0-9-----------9-7-|-0-0-----0-|---------|----------|-----



---------|------------|-------------------------|------------|----------------
-------9-|----------9-|-------------------------|--------9---|----------------
-6-6-6---|-8-8-10-7---|-6-6-6-6-6-6-6-6-6-6-6---|-8-10-7---7-|-6-9-10-8-9-10--
---------|------------|-----------------------1-|------------|----------------



----------|-----------------------------------|-----------------|-------------
-9-9----9-|---5-7-----5---8-7-5-8-8-5---------|---5-7-----------|-------------
-----10---|-8-----7-8---6-------------8-6-8-6-|-8-----7-7-7-7-7-|-------------
----------|-----------------------------------|-----------------|-1-1-1-1-1---



---------12---------|---------------|----------------------12-------------|---
------12----12-8-10-|---5-7---9-5-7-|-----------10------13----13-10----10-|---
-6/10---------------|-8-----7-------|-6-6-6-6-6----13-9-------------13----|---
--------------------|---------------|-------------------------------------|---



-----------------|---------------------|---------|-----8----------------------
---5-7-----------|----------------8----|---5-7---|------------13-12-13-10-13--
-8-----7-7-7-7-7-|-6-10-8-6-10-10---10-|-8-----7-|-6-6---6/13-----------------
-----------------|---------------------|---------|----------------------------



-12-10---|----------|---|-|---------------------------------------------------
-------13|--5-7-----|---|-|---------------------------------------------------
---------|8-----7---|-6-|-|---------------------------------------------------
---------|--------2-|---|-|---------------------------------------------------


#-----------------------------------------------------------------------------#
icq: 12081767
web: www.tipoune.com
#-----------------------------------------------------------------------------#


***         this tab was originally transcribed by Gilles Malapert          ***


Jeff Buckley albums
2000 Mystery White Boy
1998 Sketches For My Sweetheart the Drunk
1994 Grace
Grace tabs
01Mojo Pin tabbass tab
02Grace tabbass tab
03Last Goodbye tabbass tab
04Lilac Wine tabbass tab
05So Real tabbass tab
06Hallelujah tabbass tab
08Corpus Christi Carol tabbass tab
09Eternal Life tabbass tab
10Dream Brother tabbass tab

 

1