Search tabs:
Browse artists: 0-9 | A | B | C | D | E | F | G | H | I | J | K | L | M | N | O | P | Q | R | S | T | U | V | W | X | Y | Z
/ Jet / Get Born (2003) / Get What You Need bass tab

BAND: JET
TITLE: GET WHAT YOU NEED
ALBUM: GET BORN

NORMAL TUNING: E,A,D,G

INTRO (0:12)  *Play 8 / 9 times
G|----------------------------|
D|----------------------------|
A|----------------------------|
E|-21*-19-16-14-12------------|

VERSE (0:14) 6x               2X                   (1st)    (2nd)   ^ Play 13x
G|-------------------|--------------------------|---------|-----------------|
D|-------------------|--------------------------|---------|-----------------|
A|-------------------|--------------------------|-9-7-9-7-|-9-9-9-11^-------|
E|-9-9-7-9--0-2--2-0-|-9--9-7--2--0-2-0--9--9-7-|---------|-----------------|



  SOLO 2x (0:53) *the second time start with (7)*
G|-------------------------------------------------------|
D|-------------------------------------------------------|
A|------------------------------------------7-9-9-7-9-7--|
E|-(7)-9-9-7-9-7--0-2-2-0-2-0--7-9-9-7-9-7---------------|


               2X                           (1st)        (2nd)
G|-------------------------------------|-------------|--------------|
D|-------------------------------------|-------------|--------------|
A|-------------------------------------|-7-9-9-7-9-7-|-9-9-9-11^----|
E|-9-9-7-9-7--0-2-2-0-2-0--7-9-9-7-9-7-|-------------|--------------|


G|------------------------------------------------|
D|---------------------11-------------------------|
A|----11h9h11-----9h11----11----------------------|
E|-9----------9--------------9-----21-19-16-9-----|


G|--------------------------------------|
D|--------------------------------------|
A|----------------------------7-9--9-7--|
E|-9-9-7-9--0-2-2-0--9-9-7-9------------|

                                                       ^ Play Approx. 13 times
G|-------------------------------------------------------------------------------|
D|-------------------------------------------------------------------------------|
A|---------------------------9-7-9-7---------------------------9-9-9-11^---------|
E|--9--9-7--2-0-2-0--9--9-7----------9--9-7--2-0-2-0--9--9-7---------------------|

 PLAY 2X  * Second time around start with (7) *
G|---------------------------------------------------------|
D|---------------------------------------------------------|
A|--------------------------------------------7-9-9-7-9-7--|
E|--(7)--9-9-7-9-7--0-2-2-0-2-0--7-9-9-7-9-7---------------|

              2X                           (1st)         (2nd)
G|-------------------------------------|-------------|------------|
D|-------------------------------------|-------------|------------|
A|-------------------------------------|-7-9-9-7-9-7-|-9-9-9-11^--|
E|-9-9-7-9-7--0-2-2-0-2-0--7-9-9-7-9-7-|-------------|------------|

                       2X                              3X
G|---------------------------------------------|-------------|----------------|
D|---------------------------------------------|-11-9--------|----------------|
A|---------------------------------------------|------11-9---|----------------|
E|9~---9-9-7-9--9-9-7-9--9-9-7-9--0-1-2--2-4-5-|-----------9-|-0-1-2--2-4-5-5-|
                                               |       DO THIS tWICE          |
                                               |______________________________|

                 2X
G|-------------------------------------|-------------|
D|-------------------------------------|-------------|
A|-------------------------------------|-7-9-9-7-9-7-|
E|-9-9-7-9-7--0-2-2-0-2-0--7-9-9-7-9-7-|-------------|

GO BELOW AFTER WHAT YOU'VE DONE ABOVE QUICKLY


between < > play untilyou hear different note   PLAY ABOUT 6X
G|--------------------------------------------|--------------|-------------|
D|---------------------------9-----11-9-------|--------------|-------------|
A|-9-9-9-<11>-then--9-11-11-----11------11-9--|-11-9---------|-------------|
E|--------------------------------------------|------11------|-9--9--0~----|


TABBED BY PAUL VILLENEUVE
FIRST TAB ... PLEASE RATE

comments? paul_is_canadian@hotmail.com


Jet albums
2004 Rare Tracks
2003 Get Born
Get Born tabs
01Last Chance tabbass tab
02Are You Gonna Be My Girl tabbass tab
03Rollover D.J. tabbass tab
04Look What You've Done tabbass tab
05Get What You Need tabbass tab
06Move On tabbass tab
07Radio Song tabbass tab
08Get Me Outta Here tabbass tab
09Cold Hard Bitch tabbass tab
10Come Around Again tabbass tab
11Take It or Leave It tabbass tab
12Lazy Gun tabbass tab
13Timothy tabbass tab

 

1