Search tabs:
Browse artists: 0-9 | A | B | C | D | E | F | G | H | I | J | K | L | M | N | O | P | Q | R | S | T | U | V | W | X | Y | Z
/ Jet / Get Born (2003) / Last Chance bass tab

Artist: Jet
Song: Last Chance (Track 1, Get Born)

Tabber: Drew Thomson (drewthomson200@hotmail.com)


Intro:

G|------------------------------------------------------------------------------------|
D|------------------------------------------------------------------------------------|
A|-2-2-2-2-2----2-2-2-2-2----2-2-2-2-2----2-2-2-2-2-2-2-2-----------------------------|
E|---------------------------------------------------------0--------------------------|


Verse 1:

G|------------------------------------------------------------------------------------|
D|------------------------------------------------------------------------------------|
A|-5-7--------5-7--------5-7--------5-7--------5-7---------5-7---------5-7------------|
E|-----0----------0----------0----------0----------0-----------0-----------0----------|
                                    "You ain't nothin' to me..."

Chorus 1:

G|---------------------------------------2-4-2----------------------------------------|
D|---------------------------------0-2-4-------4-2---------------2--------------------|
A|-0-0-222-0-2-22-2---0-22-0-2--2--------------------------0---------2-2-0-2-22-2-----|
E|-------------------------------------------------3-3-0-3---000----------------------|

G|------------------------------------------------------------------------------------|
D|------------------------------------------------------------------------------------|
A|---------5--------------------------------------------------------------------------|
E|-3-3-0-3---5-3-5-3-0----------------------------------------------------------------|


Verse 2:

G|----------------------------------------------------------------------------------------------|
D|-----5-----------------5------------------5---------------5---------------5-----------------5-|
A|-5-7--------5-7----5-7---------5-7----5-7-------5-7---5-7-------5-7---5-7--------5-7----5-7---|
E|----------------0------------------0----------------0---------------0----------------0--------|
                                 "You ain't nothin' to me..."

Chorus 2:

G|------------------------------------------------------------------------------------|
D|--------------------------------------------------2-------------------------------2-|
A|-0-0-22-0-2-22-2---0-22-0-2-22-2------------0---------0-22-0-2-22-2----------0-0-0---|
E|------------------------------------3-3-0-3---000--------------------3-3-0-3---------|


Outro:

G|------3/4-------012-------4444444-2-----------4-2-----------4-2-----------4-2---4-2---4-2-|
D|------------------------------------4-----2-4-----4-----2-4-----4-----2-4-----4-----4-----|
A|-2-22-------22-------2-22-------------2-2-----------2-2-----------2-2---------------------|
E|------------------------------------------------------------------------------------------|

G|------------------------------------------------------------------------------------------|
D|---------------2--------------------------------------------------------------------------|
A|---------0--------2-2-0-2-2-2-2-----------------------------------------------------------|
E|-3-3-0-3---000----------------------------------------------------------------------------|


The only thing I couldn't properly make out was the bit after 3 3 0 3 in the chorus, so I put
something that sounded good enough..

Drew (drewthomson200@hotmail.com)

Any other tabs required or comments, e-mail me!


Jet albums
2004 Rare Tracks
2003 Get Born
Get Born tabs
01Last Chance tabbass tab
02Are You Gonna Be My Girl tabbass tab
03Rollover D.J. tabbass tab
04Look What You've Done tabbass tab
05Get What You Need tabbass tab
06Move On tabbass tab
07Radio Song tabbass tab
08Get Me Outta Here tabbass tab
09Cold Hard Bitch tabbass tab
10Come Around Again tabbass tab
11Take It or Leave It tabbass tab
12Lazy Gun tabbass tab
13Timothy tabbass tab

 

1