Search tabs:
Browse artists: 0-9 | A | B | C | D | E | F | G | H | I | J | K | L | M | N | O | P | Q | R | S | T | U | V | W | X | Y | Z
/ Jet / Get Born (2003) / Move On bass tab

My first tab so i probably screwed it up up somewere but its a pretty simple song

22 sec in
G|---------------------------------------------------------------------------||
D|---------------------------------------------------------------------------||
A|--10-10-10--10-10-------------------------------10-----------------10------||
E|-------------------10-10-10--10-10--8-8-8--8-8-----10--8-8-8-8-10-----10-8-||


G|------------------|------------------|------------------|------------------||
D|------------------|------------------|------------------|------------------||
A|------------------|------------------|------------------|------------------||
E|-8-8-8-10-10-10-10|-10-10-10-10-10-8-|8-8-8-8-3-3-3-3-3-|-10-10-10-10-10-10||


G|------------------|------------------||
D|------------------|------------------||
A|-10-10-10-8-8-8-8-|8-3-3-3-----------||
E|------------------|------------------||


G|------------------||
D|---10-------------||
A|-10----10-10-10-10||
E|------------------||


G|------------------|------------------|------------------||
D|------------------|------------------|------------------||
A|-10---------------|------------------|----------10------||
E|----10-10-10-10-10|-8-8-8-8-8-10-10--|-10-10-10---10-8-8||






G|------------------|------------------|------------------|------------------||
D|------------------|------------------|------------------|------------------||
A|------------10----|------------------|------------------|------------------||
E|-8-10-10-10---10--|-8-8-8-8-10-10-10-10|-10-10-10-10-10-8-|8-8-8-8-3-3-3-33||

G|------------------|------------------|------------------|------------------||
D|------------------|------------------|------------------|------------------||
A|------------------|------------------|------------------|------------------||
E|10-10-10-10-10-10-|10-10-10--8-8-8-8-|8--4-4-4-4-2-2-2-2|-4-4-4-4-2-2-2-2--||



G|------------------|------------------|------------------|------------------||
D|------------------|------------------|------------------|------------------||
A|-10-10-10-10------|------------------|------------------|------------------||
E|------------10-10-|10-10-10-8-8-8-8-8|8-8-8-8-8-10-10-10|10-10-10-10-10-10-||


G|------------------|------------------|------------------||
D|------------------|------------------|------------------||
A|----10-10-10-10---|------------------|----------10------||
E|-10-------------10|10-10-10-8-8-8-8-10-10-10-10----10-8-||

G|--------------------------------------------------------||
D|--------------------------------------------------------||
A|-------------10------------------10---------------------||
E|-8-8-8-10-10----10-8-10-10-10-10----10-8-8---10-10-10-8-3||


Jet albums
2004 Rare Tracks
2003 Get Born
Get Born tabs
01Last Chance tabbass tab
02Are You Gonna Be My Girl tabbass tab
03Rollover D.J. tabbass tab
04Look What You've Done tabbass tab
05Get What You Need tabbass tab
06Move On tabbass tab
07Radio Song tabbass tab
08Get Me Outta Here tabbass tab
09Cold Hard Bitch tabbass tab
10Come Around Again tabbass tab
11Take It or Leave It tabbass tab
12Lazy Gun tabbass tab
13Timothy tabbass tab

 

1