Search tabs:
Browse artists: 0-9 | A | B | C | D | E | F | G | H | I | J | K | L | M | N | O | P | Q | R | S | T | U | V | W | X | Y | Z
/ Jimi Hendrix / Experience Hendrix (The Best Of) [CD 1] (2000) / Hey Joe bass tab

|--------------------------------------------------------------------------------|
                              Jimmi Hendrix-Hey Joe
|--------------------------------------------------------------------------------|


This is an awesome for bass and espesially guitar.

|--------------------------------------|
|--------------------------------------|
|--3---3---2-3-5---5---4-5-7~--5--5-7--|
|--------3-----------5-------7--7------|

You just do that,  but near the end you go right into this

|------------------------------------------------|
|------------------------------------------------|
|-3--------2-3-4-5--------4-5-6-7------5---5-7---|
|--0-1-2-3--------2-3-4-5------------7---7-------|

That's basically it.
If you play an instrument,  and you dont own the "Experience Hendrix" album,
Put you're guitar or bass in the attic, because you don't deserve it.


Jimi Hendrix albums
2000 Experience Hendrix (The Best Of) [CD 1]
1967 Are You Experienced?
Experience Hendrix (The Best Of) [CD 1] tabs
01Purple Haze tabbass tab
02Fire tabbass tab
03The Wind Cries Mary tabbass tab
04Hey Joe tabbass tab
05All Along The Watchtower tabbass tab
06Stone Free tabbass tab
07Crosstown Traffic tabbass tab
08Manic Depression tabbass tab
09Little Wing tabbass tab
10If 6 Was 9 tabbass tab
11Foxy Lady tabbass tab
12Bold As Love tabbass tab
13Castles Made Of Sand tabbass tab
14Red House tabbass tab
15Voodoo Child tabbass tab
16Freedom tabbass tab
17Night Bird Flying tabbass tab
18Angel tabbass tab
19Dolly Dagger tabbass tab
20Star Spangled Banner tabbass tab

 

1