Search tabs:
Browse artists: 0-9 | A | B | C | D | E | F | G | H | I | J | K | L | M | N | O | P | Q | R | S | T | U | V | W | X | Y | Z
/ Jimi Hendrix / Experience Hendrix (The Best Of) [CD 1] (2000) / If 6 Was 9 bass tab

Jimi Hendrix - If 6 Was 9
Submitted By: KennyBorders
EMail: Spankielnc@aol.com


Intro(x4)   Verse (x2)
G|---------|--------------4/6-----------4/6-----------4/6----------|
D|---------|------------------8-\6----------8-\6----------8-\6-----|
A|---4-6---|--------4/6------------46------------46------------46--|
E|---------|4/6-6/9------------------------------------------------|

Chorus
G|-----6--------------------------------------|
D|---4---6------6--7h8p76-4-------4-----------|
A|/4--------6-6---6---------4-------6-4---46--|
E|----------------------------4-6-------4-----|

Verse 2 riff
G|--------|
D|--------|
A|46---4--|
E|----6---|

Outro
G|----------------|--------|-------|
D|--8---8---8---8-|----8---|6h88---|
A|6---6---6---6---|--6---6-|----66-|
E|----------------|6-------|-------|


Jimi Hendrix albums
2000 Experience Hendrix (The Best Of) [CD 1]
1967 Are You Experienced?
Experience Hendrix (The Best Of) [CD 1] tabs
01Purple Haze tabbass tab
02Fire tabbass tab
03The Wind Cries Mary tabbass tab
04Hey Joe tabbass tab
05All Along The Watchtower tabbass tab
06Stone Free tabbass tab
07Crosstown Traffic tabbass tab
08Manic Depression tabbass tab
09Little Wing tabbass tab
10If 6 Was 9 tabbass tab
11Foxy Lady tabbass tab
12Bold As Love tabbass tab
13Castles Made Of Sand tabbass tab
14Red House tabbass tab
15Voodoo Child tabbass tab
16Freedom tabbass tab
17Night Bird Flying tabbass tab
18Angel tabbass tab
19Dolly Dagger tabbass tab
20Star Spangled Banner tabbass tab

 

1