Search tabs:
Browse artists: 0-9 | A | B | C | D | E | F | G | H | I | J | K | L | M | N | O | P | Q | R | S | T | U | V | W | X | Y | Z
/ Jimi Hendrix / Experience Hendrix (The Best Of) [CD 1] (2000) / Purple Haze bass tab

#----------------------------------PLEASE NOTE--------------------------------#
#This file is the author's own work and represents their interpretation of the#
#song. You may only use this file for private study, scholarship, or research.#
#-----------------------------------------------------------------------------#
#-- File created with Instab - http://www.pconline.com/~smcarey/instab.html --#
#-----------------------------------------------------------------------------#

Author/Artist: Jimi Hendrix
Title: Purple Haze
Transcribed by: Lowend
Email: Bassk8er99@yahoo.com
Comments:  Play notes in parenthesis on last time
2x
---9---9---9---9---9---9---9---9---9---9--------------------------------------
------------------------------------------------------------------------------
-7---7---7---7---7---7---7---7---7---7----------------------------------------
------------------------------------------------------------------------------

5x
-----------------------------------------------------------------------------
-----------------------------------------------------------------------------
-7-7-7-7-7-7-7/-------------4-5-(7)------------------------------------------
----------------3-3-3-3-5-5--------------------------------------------------

1x
----------7-12----7-12--------------------------------------------------------
-------/9------/9-------------------------------------------------------------
-9-7-5------------------------------------------------------------------------
------------------------------------------------------------------------------

3x
------------------------------------------------------------------------------
------------------------------------------------------------------------------
-7-7-7-7-7-7-7/-------------4-5-(7)-------------------------------------------
----------------3-3-3-3-5-5---------------------------------------------------

1x
----------7-12----7-12--------------------------------------------------------
-------/9------/9-------------------------------------------------------------
-9-7-5------------------------------------------------------------------------
------------------------------------------------------------------------------

1x
------------------------------------------------------------------------------
-7-7-7-7-7-7-9-9-9-9-9-9------------------------------------------------------
-------------------------5-5-5-5-5-5/---7-7-7-7-7/9-9-9-9-5-5-5-5-------------
--------------------------------------0---------------------------------------

3x
------------------------------------------------------------------------------
------------------------------------------------------------------------------
-7-7-7-7-7/9-7/9-5-5----------------------------------------------------------
------------------------------------------------------------------------------

2x
---9---9---9---9---9---9---9---9----------------------------------------------
------------------------------------------------------------------------------
-7---7---7---7---7---7---7---7------------------------------------------------
------------------------------------------------------------------------------

1x
------------------------------------------------------------------------------
------------------------------------------------------------------------------
-7-7-7-7-7-7/9-7/9-5-5--------------------------------------------------------
------------------------------------------------------------------------------

4x
------------------------------------------------------------------------------
------------------------------------------------------------------------------
-7-7-7-7-7-7-7-7/-------------4-5-(7)-----------------------------------------
------------------3-3-3-3-5-5-------------------------------------------------

1x
----------7-12----7-12--------------------------------------------------------
-------/9------/9-------------------------------------------------------------
-9-7-5------------------------------------------------------------------------
------------------------------------------------------------------------------

1x
------------------------------------------------------------------------------
-7-7-7-7-7-7/9-9-9-9-9-9------------------------------------------------------
-------------------------5-5-5-5-5-5------------------------------------------
------------------------------------------------------------------------------

until the end
------------------------------------------------------------------------------
------------------------------------------------------------------------------
---7-7-7-7-7-7/9-7/9-5-5-(/12\\)-----------------------------------------------
-0----------------------------------------------------------------------------


Jimi Hendrix albums
2000 Experience Hendrix (The Best Of) [CD 1]
1967 Are You Experienced?
Experience Hendrix (The Best Of) [CD 1] tabs
01Purple Haze tabbass tab
02Fire tabbass tab
03The Wind Cries Mary tabbass tab
04Hey Joe tabbass tab
05All Along The Watchtower tabbass tab
06Stone Free tabbass tab
07Crosstown Traffic tabbass tab
08Manic Depression tabbass tab
09Little Wing tabbass tab
10If 6 Was 9 tabbass tab
11Foxy Lady tabbass tab
12Bold As Love tabbass tab
13Castles Made Of Sand tabbass tab
14Red House tabbass tab
15Voodoo Child tabbass tab
16Freedom tabbass tab
17Night Bird Flying tabbass tab
18Angel tabbass tab
19Dolly Dagger tabbass tab
20Star Spangled Banner tabbass tab

 

1