Search tabs:
Browse artists: 0-9 | A | B | C | D | E | F | G | H | I | J | K | L | M | N | O | P | Q | R | S | T | U | V | W | X | Y | Z
/ Metallica / Master of Puppets (1986) / Damage, Inc. bass tab


              "DAMAGE,INC." from the album "Master Of Puppets"

                                  METALLICA

Tabbed by MAF

Intro
              Fast=190
4/4|----14---||------------|--------------|------------|--------------|
   |-|-----|-||------------|--------------|------------|--------------|
   |--pause--||------------|--------------|------------|--------------|
   |---------||0-----0-----|0-----0--1-1-1|0-----0-----|0-----0--1-1-1|

|------------|--------------|------------|------------||
|------------|--------------|------------|------------||
|------------|--------------|------------|------------||
|0--0--0--0--|0--0--0--1-1-1|0--0--0--0--|0--0--0--0--||

|----------------|----------------||------------------|----------------|
|----------------|----------------||:-----------------|----------------|
|----------------|----------------||------------------|----------------|
|0000000000000000|5-5/6---5/6---5/||-/6-00000000000000|5-5/6---5/6---5/|
                     s     s     --s--                    s     s     --s

                                                     -------------------
                                                     |1
|-----------------|----------------|-----------------|----------------|
|-----------------|----------------|-----------------|----------------|
|-----------------|----------------|-----------------|----------------|
|/6-00000000000000|5-5/6---5/6---5/|/6-22222222222222|3-3/2---3/2---3/|
s-                    s     s     -s-                    s     s     --s

------------------------------------ ----------------
                                    ||2
|-----------------|-----------------||---------------|------------|
|-----------------|----------------:||---------------|------------|
|-----------------|-----------------||---------------|2-----------|
|/2-00000000000000|5-5/6---5/6---5/-||3-3/2---3/2---3|------3-----|
s-                    s     s     --s--  s     s

|------------|----------------|---------||
|------------|----------------|---------||
|0-----------|----------------|---------||
|------3-----|2222222222222222|2--------||

||-----------------|----------------|----------------|-----------------||
||:----------------|----------------|----------------|----------------:||
||-----------------|----------------|----------------|-----------------||
||-6/3-00-0-0-000-0|6/3-00-0-0-000-0|6/3-00-0-0-000-0|6/3 11-1-0-000-0-||

            1st,2nd,3rd Verses
|---------||-----------------|----------------|----------------|
|2/4------||:----------------|----------------|----------------|
|---------||-----------------|----------------|----------------|
|----6----||-6/3 00-0-0-000-0|6/3 00-0-0-000-0|6/3 00-0-0-000-0|

|----------------|----------------|----------------|----------------|
|----------------|----------------|----------------|----------------|
|----------------|----------------|----------------|----------------|
|6/3-11-1-0-000-0|6/3-00-0-0-000-0|6/3 00-0-0-000-0|6/3 00-0-0-000-0|

|----------------|----------------|----------------|----------------|
|----------------|----------------|----------------|----------------|
|55555555--------|----------------|----------------|----------------|
|--------66666666|6/3-00-0-0-000-0|6/3-00-0-0-000-0|6/3-00-0-0-000-0|

|----------------|----------------|----------------|----------------|
|----------------|----------------|----------------|----------------|
|----------------|----------------|----------------|----------------|
|6/3-11-1-0-000-0|6/3-00-0-0-000-0|6/3-00-0-0-000-0|6/3-00-0-0-000-0|

|----------------|------------|------------|----------------|------------|
|----------------|------------|------------|----------------|------------|
|55555555--------|2-----------|0-----------|----------------|------------|
|--------66666666|------3-----|------3-----|2222222222222222|0-----------|

------------------------------------------------------  -----------
|1                                                    ||2
|------------|-------------|------------|-------------||-----------|
|------------|-------------|------------|------------:||-----------|
|------------|-------------|------------|-------------||-----------|
|0-----0-----|0-----0-1-1-1|0--0--0--0--|0--0--0--0---||-----------|

         ------------  -----------             --------------  -------------
        |1.2.3       || 4                     |1.2.3         ||4
||------|------------||-----------||----------|--------------||------------||
||:-----|-----------:||-----------||:---------|-------------:||------------||
||------|----------1-||----------2||----------|------------1-||-----------2||
||------|-----11-1---||-----11-1--||-0--------|(0)----11-1---||(0)---11-1--||

Bridge

|--------|------------|--------|---------------|--------|---------------|
|--------|------------|--------|---------------|--------|---------------|
|--------|-----------1|--------|--------------1|--------|--------------1|
|0-------|------11-1--|0-------|(0)------11-1--|0-------|(0)------11-1--|

|--------|------------|    ------------|    ----------||
|--------|------------|7/8 ------------|4/4 ----------||
|--------|-----------2|    2-----------|    ----------||
|0-------|------11-1--|    ------------|    ----------||

Guitar Solo

||-----------------|----------------|----------------|-----------------||
||:----------------|----------------|----------------|----------------:||
||-----------------|----------------|----------------|-----------------||
||-0000000000000000|0000000000000000|0000000000000000|0000000000000000-||

                                                     ------------------
                                                     |1                |
||-----------------|----------------|----------------|-----------------||
||:----------------|----------------|----------------|----------------:||
||-----------------|----------------|----------------|-----------------||
||-2222222222222222|2222222222222222|2222222222222222|2222222222222222-||

 ------------------
 |2
||----------------||-------------------|----------------|-----------------|
||----------------||:------------------|----------------|-----------------|
||--------00-011-1||-------------------|----------------|-----------------|
||22-233-3--------||-000000000000000000|5-5/6---5/6---5/|/6-00000000000000|
                                           s     s     -s-

|----------------|-----------------|----------------|-----------------|
|----------------|-----------------|----------------|-----------------|
|----------------|-----------------|----------------|-----------------|
|5-5/6---5/6---5/|/6-00000000000000|5-5/6---5/6---5/|/6-22222222222222|

|----------------||-----------|-----------|----------------|----------------|
|---------------:||-----------|-----------|----------------|----------------|
|----------------||2----------|0----------|----------------|----------------|
|3-3\2---3\2---3-||------3----|------3----|2222222222222222|2222222222222222|

|------------|------------|----------------|----------------||
|------------|------------|----------------|----------------||
|2-----------|0-----------|----------------|----------------||
|------3-----|------3-----|2-22-2-23-3-33-3|5-55-5-56-66-6-6||

                                                     -----------------
                                                    |1                |
||----------------|----------------|----------------|-----------------||
||:---------------|----------------|----------------|----------------:||
||----77----------|77------------1-|----77-0-0-0-0-0|77------------5--||
||-0-0---0-0-0-0-0|---0-0-0-00-0---|0-0-------------|---0-0-0-00-0----||

 ----------------
|2               |                                      D.S. al Coda
|----------------|------------|------------|----------------||
|----------------|------------|------------|----------------||
|77------------2-|2-----------|0-----------|----------------||
|---0-0-0-00-0---|------3-----|------3-----|2222222222222222||

   Coda
   |-----------------|--------------------|----------------|
   |-----------------|--------------------|----------------|
   |x-2----2---------|x-0-----0-----------|----------------|
   |---------x-3----3|-----------x-3-----3|2222222222222222|

|--------------|------------|--------------|------------||
|--------------|------------|--------------|------------||
|--------------|------------|--------------|------------||
|2-------------|0-----0-----|0-----0--1-1-1|1-----------||

Ok here's the song.Quite fast.
I think is (really) right.If you got problems,questions or Dream Theater
Btabs please write me!

                   METAL UP YOUR ASS!!!

                                         Maf (patitucci@hotmail.com)


Metallica albums
2003 St. Anger
1998 Garage Inc.
1997 Reload
1996 Load
1991 Metallica (Black Album)
1988 And Justice For All
1987 Garage Days Re-Revisited
1986 Master of Puppets
1984 Ride The Lightening
1983 Kill'em All
Master of Puppets tabs
01Battery tabbass tab
02Master Of Puppets tabbass tab
03The Thing That Should Not Be tabbass tab
04Welcome Home (Sanitarium) tabbass tab
05Disposable Heroes tabbass tab
06Leper Messiah tabbass tab
07Orion tabbass tab
08Damage, Inc. tabbass tab

 

1