Search tabs:
Browse artists: 0-9 | A | B | C | D | E | F | G | H | I | J | K | L | M | N | O | P | Q | R | S | T | U | V | W | X | Y | Z
/ Oasis / Morning Glory (What's The Story) (1995) / Cast No Shadow bass tab

Cast No Shadow


Standard tuning E A D G


tab Symbols:
p = pull off
h = hammer on
/ = slide up
\ = slide down


Intro
|----12----------------------------------------------------------------
|----------------------------------------------------------------------
|----------12----12/14--12---\-------------------11/12--10-------------
|------------------------------3------1-3p1-3---------------11/12--10\-

-----------------------------------------------
--------------------------------7--5-----------
--------------------------------------7--5--\--
-5--5----5--5-5----3/5--5--5-------------------

------------------------------------|
------------------------------------|
------------------------------------|
-3--3----3--3-3----1/3-3----3--3-3--|


Verse
"Here's a thought"
|-----------------------------------------
|-----------------------------7--5--------
|-----------------------------------7--\--
|-5--5----5--5-5----5--5------------------

------------------------------------
------------------------------------
------------------------------------
-3--3----3--3-3----1/3-3----3--3-3--

----------------------------------------
----------------------------5--7/12--\--
-------------------------7--------------
-5--5----5--5-5----5--5-----------------

--------------------------------------------|
--------------------------------------------|
--------------------------------------------|
-3--3----3--3-3----1/3-3--3----3--3-3--3--3-|


PreChorus
"Bound with all the weight"
|------9-----------------------------------------|
|------------------------------------------------|
|-7---------5-5-5--5----3----3-------------------|
|---------------------------------3--3--3-(1)-3--| x3

"As he faced the sun"
|---------------------------------------|
|--------------------7/12----12----10\--|
|------5----3---------------------------|
|-0-------------------------------------|


Chorus
"As they took his soul"
|----------------------------------------------
|-------------------------------------7/12--\--
|----------------------------------------------
|-3--3----3--3-3----3/5-5--5----5--5-----------

--------------------------------------------
--------------------------------------------
-----------------------7--5--7-----5--5h7-5-
-8--8----8--8-8--8--0-----------0-----------

------------------------------------------
------------------------------------------
------------------------------------------
-3--3----3--3-3----3/5-5--5----5--5-5--5--

--------------------------------------------
-----------------------------------7/12--\--
-----------------------7--5--7--------------
-8--8----8--8-8--8--0-----------0-----------

------------------------------------------
------------------------------------------
------------------------------------------
-3--3----3--3-3----3/5-5--5----5--5-5--5--

--------------------------------------------
-----------------------------------7/12--\--
-----------------------7--5--7--------------
-8--8----8--8-8--8--0-----------0-----------

				Musical interlude
--------------------------------------------------------
-----------------------------------7--5-----------------
-7----5----3--------3---3---3---3----------7--5--5h7p5--
--------------------------------------------------------

--------------------------------------
---------------------------5h7/12--\--
--------------------------------------
-5--5----5--5-5----5--5---------------

--------------------------------------------------------------
--------------------------------------------------------------
--------------------------------------------------------------
-3--3----3--3-3----1/3-3--3----3--3-3----5--5----5--5-5----5--

--------------------------------
----(10)-12----12-(14)-12--10\--
-12-----------------------------
--------------------------------

-----------------------------------------|
-----------------------------------------|
-----------------------------------------|
-3--3----3--3-3----1/3-3--3----3--3-3----|


to Verse

PreChorus
"Bound with all the weight"
|------9-----------------------------------------|
|------------------------------------------------|
|-7---------5-5-5--5----3----3-------------------|
|---------------------------------3--3--3-(1)-3--| x3

"As he faced the sun"
|------------------------------------------------|
|------------------------------------------------|
|------5----3--------8/12--10--10h12--10---------|
|-0--------------------------------------12--10\-|


Chorus/the End
|--------------------------------------------
|------------------------------------7/12-\--
|--------------------------------------------
|-3--3----3--3-3--3--3/5-5--5---5--5---------

-----------------------------------------------
-----------------------------------------------
------------------------7--5--7-----5h7--5-----
-8--8----8--8-8--8---0-----------0----------7--

----------------------------------------------
----------------------------------------------
----------------------------------------------
-3--3----3--3-3--3--3/5-5--5---5--5-5--5---5--

----------------------------------------------------
-------------------------------------------------12-
-------------------------7--5--7-----12p10-12/15----
-8--8----8--8-8--8----0-----------0-----------------

---------------------------------------------
---------------------------------------------
---------------------------------------------
-3--3----3--3-3--3--3/5-5--5---5--5-5--5---5-

-------------------------------------------------
-------------------------------------------------
------------------------7--5--7-----7----7-/-10--
-8--8----8--8-8--8---0-----------0----10---------

---------------------------------------------
---------------------------------------------
---------------------------------------------
-3--3----3--3-3--3--3/5-5--5---5--5-5--5---5-

--------------------------------------------------
--------------------------------------------------
-------------------------7--5--7-----7\5-7/10-12--
-8--8----8--8-8--8----0-----------0---------------


Oasis albums
2005 Don't Believe the Truth
2002 Heathen Chemistry
2000 Standing On The Shoulder Of Giants
1998 The Masterplan
1997 Be Here Now
1995 Morning Glory (What's The Story)
1994 Definitely Maybe
Morning Glory (What's The Story) tabs
01Hello tabbass tab
02Roll With It tabbass tab
03Wonderwall tabbass tab
04Don't Look Back In Anger tabbass tab
05Hey Now! tabbass tab
06Some Might Say tabbass tab
07Cast No Shadow tabbass tab
08She's Electric tabbass tab
09Morning Glory tabbass tab
10Champagne Supernova tabbass tab

 

1