Search tabs:
Browse artists: 0-9 | A | B | C | D | E | F | G | H | I | J | K | L | M | N | O | P | Q | R | S | T | U | V | W | X | Y | Z
/ Oasis / Morning Glory (What's The Story) (1995) / Don't Look Back In Anger bass tab

OASIS - DON'T LOOK BACK IN ANGER

TABBED BY JIM COTTRELL (BOBTUCKER9@HOTMAIL.COM) WWW.CLIK.TO/AMBRE

NO BASS FOR THE INTRO

VERSE

G ---------------------------------------------------------------------------
D ---------------------------------------------------------------------------
A --3-3-3-3-----------------------------------------------3-3-3-3------------ X2
E -----------3-3-3-3--5-5-5-5--0-0-0-0--1-1-1-1--3-3-3-3------------5-5--3-3-

BRIDGE

G ------------------------------------
D ------------------------------------
A -------------------3-3-3-3-3-3-3-3-- X3
E --1-1-1-1-1-1-1-1-------------------
 
G --------------------------------------------
D --------------------------------------------
A --------------------------------------------
E --3-3-3-3-3-3-3-3--4-4-4-4-4-4-4-4--5-5-5-5-

G -------------------------------------------------------------
D -------------------------------------------------------------
A -------------------------------------------------------------
E --3-3-3-3--1-1-1-1-1-1-1-1--3-3-3-3-3-3-3-3-3-3-3-3-3-3-3-3--

CHORUS

G ---------------------------------------------------------------------------
D ---------------------------------------------------------------------------
A --3-3-3-3-----------------------------------------------3-3-3-3------------ X2
E -----------3-3-3-3--5-5-5-5--0-0-0-0--1-1-1-1--3-3-3-3------------5-5--3-3-

THEN PLAY THIS LITTLE BIT UNTIL THE VERSE

G ------------------------------------------------------------
D ------------------------------------------------------------
A --------------------------------------3-3-3-3---------------
E --5-5-5-5--0-0-0-0--1-1-1-1--3-3-3-3-----------5-5--3-3-----

THEN PLAY THE VERSE X2
THEN THE BRIDGE

FOR THE GUITAR SOLO JUST PLAY THE BRIDGE
BUT STOP AT THE END FOR THE DRUM SOLO

THEN PLAY THE CHORUS 3 TIMES

ON THE 4TH TIME PLAY THIS

G -----------------------------------
D -----------------------------------
A --3-3-3-3--------------------------
E -----------3-3-3-3--5-----1-----3--

OUTRO

G --------------------------------------------------------
D --------------------------------------------------------
A --3-3-3-3-----------------------------------------------
E -----------3-3-3-3--5-5-5-5--0-0-0-0--1-1-1-1--3-3-3-3--

ENDING ON 

A --3--


Oasis albums
2005 Don't Believe the Truth
2002 Heathen Chemistry
2000 Standing On The Shoulder Of Giants
1998 The Masterplan
1997 Be Here Now
1995 Morning Glory (What's The Story)
1994 Definitely Maybe
Morning Glory (What's The Story) tabs
01Hello tabbass tab
02Roll With It tabbass tab
03Wonderwall tabbass tab
04Don't Look Back In Anger tabbass tab
05Hey Now! tabbass tab
06Some Might Say tabbass tab
07Cast No Shadow tabbass tab
08She's Electric tabbass tab
09Morning Glory tabbass tab
10Champagne Supernova tabbass tab

 

1