Search tabs:
Browse artists: 0-9 | A | B | C | D | E | F | G | H | I | J | K | L | M | N | O | P | Q | R | S | T | U | V | W | X | Y | Z
/ Oasis / Morning Glory (What's The Story) (1995) / Hello bass tab

OASIS
Hello



Intro/Verse
G|----------------------------------------------------|
D|----------------------------------------------------|
A|-------8-8--8-------8-8--8-------8-8--8-------------|
E|-5--5---------5--5---------5--5---------8--8--7--7--|


Chorus
"We live in the shadows"
|----------------------------------------------------
|----------------------------------------------------
|----------------------------------------------------
|-0--0-0--0-0--5--5-5--5-5-5-1--1--1--1--3--3--3--3--

-------------------------------------------------
-------------------------------------------------
-3--3--2--2--0--0--0--0--------------------------
-------------------------1--1--1--1--3--3--3--3--

-------------------------------------------------|
-------------------------------------------------|
-3--3--2--2--0--0--0--0--------------------------|
-------------------------1--1--1--1--3--3--3--3--|


Verse

Chorus
"We live in the shadows"
|----------------------------------------------------
|----------------------------------------------------
|----------------------------------------------------
|-0--0-0--0-0--5--5-5--5-5-5-1--1--1--1--3--3--3--3--

-------------------------------------------------
-------------------------------------------------
-3--3--2--2--0--0--0--0--------------------------
-------------------------1--1--1--1--3--3--3--3--

------------------------------------------------------------|
------------------------------------------------------------|
-3--3--2--2--0--0--0--0-------------------------------------|
-------------------------1--1--1--1--3--3--3--3--3--3--3--3-|


After Chorus

"Hello__ Hello__"
|---------------------------------------------|
|---------------------------------------------|
|---------------------------------------------|
|-1--1-1---3--3-3---5--5--5-55-55--5--5--5--3-|

"Hello__ Hello__"
|------------------------------------------------------|
|------------------------------------------------------|
|------------------------------------------------------|
|-1--1--1--1--3--3--3--3--5--5--5--5-55-55--5--5--5--3-| x6

|----------------------------|
|----------------------------|
|----------------------------|
|-1--1--1--1--3----4----5----|

Thanks & please rate this tab


Oasis albums
2005 Don't Believe the Truth
2002 Heathen Chemistry
2000 Standing On The Shoulder Of Giants
1998 The Masterplan
1997 Be Here Now
1995 Morning Glory (What's The Story)
1994 Definitely Maybe
Morning Glory (What's The Story) tabs
01Hello tabbass tab
02Roll With It tabbass tab
03Wonderwall tabbass tab
04Don't Look Back In Anger tabbass tab
05Hey Now! tabbass tab
06Some Might Say tabbass tab
07Cast No Shadow tabbass tab
08She's Electric tabbass tab
09Morning Glory tabbass tab
10Champagne Supernova tabbass tab

 

1