Search tabs:
Browse artists: 0-9 | A | B | C | D | E | F | G | H | I | J | K | L | M | N | O | P | Q | R | S | T | U | V | W | X | Y | Z
/ Oasis / Morning Glory (What's The Story) (1995) / Morning Glory bass tab

OASIS
MORNING GLORY



TUNE: E A D G


tab symbols:
/ = slide up
\ = slide down
~ = let ring
h = hammer on
p = pull off


please rate this tab



INTRO/VERSE main theme
|-------------------------------|
|-------------------------------|
|-------------5---5-5-5--\3-1---|
|-0--0--3-2-0-----------------3-|


|------------------------------------
|------------------------------------
|-------------5---5-5-5--5-5---------
|-0--0--3-2-0----------------6-5--5--

|-------------------------|
|-------------------------|
|--------3---3-3-1--0-----|
|--5-3-5--------------3-2-|


main theme continues

|------------------------------------
|------------------------------------
|-------------5---5-5-5--5-5---------
|-0--0--3-2-0----------------6-5--5--

|------------------------|
|------------------------|
|-------3---3-3-1--1-1-1-|
|-5-3-5------------------|

CHORUS
|-------------------|----------------|
|-------------------|----------------|
|-3/5-5-5-5-5-5-5-5-|3-3-3-3-3-3-3-3-|
|-------------------|----------------| x3

|-------------------|----------------|----------------|----------------|
|-------------------|----------------|----------------|----------------|
|-3/5-5-5-5-5-5-5-5-|5-5-5-5-5-5-5-5-|2-2-2-2-2-2-2-2-|2-2-2-2-2-0-----|
|-------------------|----------------|----------------|------------3-2-|


|-------------------------------------------------------------|
|:-----------------------------------------------------------:|
|:-------------5---5-5-5--5-5----------------3---3-3-1--0----:|
|-0--0--3-2-0-----------------6-5--5--5-3-5---------------3-2-|


|------|
|------|
|------|
|-0~~~~|



You can play this for yer own fun if you want to

2:08
|-----------------------------------------------------------------|
|-------------------------------14----13h14p13--------------------|
|---------------------13---16-------------------16--13------------|
|-2/5-8--6/12----14-------------------------------------14--12----|



GUITAR SOLO
|------------------------------|
|----2-------------------------|
|-------------5---5-5-5--3-1---|
|-0-----3-2-0----------------3-| x3

|---------------------------------------|
|----2--------------------17------------|
|-------------5---5-5/17-----19-17--19\-|
|-0-----3-2-0---------------------------|


VERSE main theme
|-------------------------------|
|-------------------------------|
|-------------5---5-5-5--\3-1---|
|-0--0--3-2-0-----------------3-|



Now, here is all what you'll need. Just learn the order. 


VARIATION for VERSE
|--------------------------------|
|--------------------------------|
|--------------5---5-5-5--\3-1---|
|-0--2-0-3-2-0-----------------3-|


Oasis albums
2005 Don't Believe the Truth
2002 Heathen Chemistry
2000 Standing On The Shoulder Of Giants
1998 The Masterplan
1997 Be Here Now
1995 Morning Glory (What's The Story)
1994 Definitely Maybe
Morning Glory (What's The Story) tabs
01Hello tabbass tab
02Roll With It tabbass tab
03Wonderwall tabbass tab
04Don't Look Back In Anger tabbass tab
05Hey Now! tabbass tab
06Some Might Say tabbass tab
07Cast No Shadow tabbass tab
08She's Electric tabbass tab
09Morning Glory tabbass tab
10Champagne Supernova tabbass tab

 

1