Search tabs:
Browse artists: 0-9 | A | B | C | D | E | F | G | H | I | J | K | L | M | N | O | P | Q | R | S | T | U | V | W | X | Y | Z
/ Oasis / Morning Glory (What's The Story) (1995) / She's Electric bass tab

OASIS - SHE'S ELECTRIC

TABBED BY JIM COTTRELL (BOBTUCKER9@HOTMAIL.COM) www.clik.to/ambre

INTRO PART ONE

G ----------------------------------
D ----------------------------------
A ----------------------------------
E -0-0-0-0-0-0-0-0-0-0-0-0-0-0-0-0--

INTRO / VERSE

G --------------------------
D --------------------------
A ------------4-4-----------
E --0-0--4-4-------5-5-5-5-- 

NEED MORE TIME BIT

G ---------------------------
D ---------------------------
A --3-3--5-5--7-7-7-7-7-7-7--
E ---------------------------

FOR THE 'AND I WANT YOU TO KNOW I'VE GOT MY MIND MADE UP NOW' PLAY

G --------------------------------------------------------------------
D --------------------------------------------------------------------
A --------------------------------------------------------------------
E --5-5-5-5-5-5-5-5-5-5-5-5-5-5-5-5-5-5-5-5-5-5-5-5--0-0-0-0-0-0-0-0--

G -----------------------------------------------------------------------------------
D -----------------------------------------------------------------------------------
A -----------------------------------------------------------------------------------
E -5-5-5-5-5-5-5-5-5-5-5-5-5-5-5-5-5-5-5-5-5-5-5-5--0-0-0-0-0-0-0-0-0-0-0-0-0-0-0-0--

G ------------------------------------
D ------------------------------------
A -------------------2-2-2-2-2-2-2-2--
E --2-2-2-2-2-2-2-2-------------------

FOR THE SOLO PLAY THE VERSE A FEW TIMES AND THE 'NEED MORE TIME BIT'

THEN PLAY THE VERSE AGAIN A FEW TIMES AND THE NEED MORE TIME BIT

AND AFTER THAT PLAY THE AND I WANT YOU TO KNOW I'VE GOT MY MIND MADE UP NOW BIT

OUTRO

G --------------------------------------
D --------------------------------------
A -------------------3-3--5-5--7-7-7-7-- X3
E --0-0-0-0-0-0-0-0---------------------

G ----------------------------------------
D ----------------------------------------
A -------------------3-3-3-3--5-5-5-5--7--
E --0-0-0-0-0-0-0-0-----------------------


Oasis albums
2005 Don't Believe the Truth
2002 Heathen Chemistry
2000 Standing On The Shoulder Of Giants
1998 The Masterplan
1997 Be Here Now
1995 Morning Glory (What's The Story)
1994 Definitely Maybe
Morning Glory (What's The Story) tabs
01Hello tabbass tab
02Roll With It tabbass tab
03Wonderwall tabbass tab
04Don't Look Back In Anger tabbass tab
05Hey Now! tabbass tab
06Some Might Say tabbass tab
07Cast No Shadow tabbass tab
08She's Electric tabbass tab
09Morning Glory tabbass tab
10Champagne Supernova tabbass tab

 

1