Search tabs:
Browse artists: 0-9 | A | B | C | D | E | F | G | H | I | J | K | L | M | N | O | P | Q | R | S | T | U | V | W | X | Y | Z
/ Oasis / Morning Glory (What's The Story) (1995) / Wonderwall bass tab

OASIS - WONDERWALL


I've tabbed this song after listening the FAMILIAR TO MILLIONS cd.

Tune: E, A, D, G

Tab symbols:
/ = slide up
r = rest (quick)
x = deaded note
h = hammer on



Verse (Backbeat...)
|--------------------------------------------------------------------
|------------------------4---4---/7-7-7--7---------------------------
|-7---7-7--2-r-2-x-2--2-----------------------7---7-7--2--2--0-2--2--
|--------------------------------------------------------------------


|----------------------------------------------
|-4----4---/7-7-7--7---------------------------
|-----------------------7---7-7--2--2--0-2--2--
|----------------------------------------------

|----------------------------------------------|
|-4----4---/7-7-7--7---------------------------|
|-----------------------7---7-7--2--2--2-2--2--|
|----------------------------------------------|


Pre-Chorus
|-------------------------------------------------|
|-------------------------------------------------|
|-5---5-5---7--7--7-7--7--9---9-9---9--9--9-9--9--|
|-------------------------------------------------| x 2

On the 3rd time
|----------------------------------------------------------------------------
|------------------------------------------------8/9--9-9-9---9--9--9--------
|-5---5-5---7--7--7-7--7--12----11----9----11-------------------------0-1-2--
|----------------------------------------------------------------------------

|--------------------------|
|-9--9-9-9---9--9--9-9--9--|
|--------------------------|
|--------------------------|

Chorus
|--------------------------------------------|
|----------------------7----7----------------|
|-5---5-5---7-9-9-9---------------7-9-9--9---|
|------------------------------10------------| x 3

On the 4th time
|---------------------------------------|
|---------------------------------------|
|-5---5-5---7-9-9-9--9---12---11---9----|
|---------------------------------------|


"Come on!"


Verse
|-----------------------------------------------|
|-4----4---/7-7-7--7----------------------------|
|-----------------------7---5-7---2--2--0-2--2--|
|-----------------------------------------------| x 4



Pre-Chorus



Chorus (This riff keeps going till the end of the song)
|---------------------------------------------------------|
|------------------------------7----7---------------------|
|-5--5-5-5---/7h9--9--9-9--9-9---------x-7h9--9--9-9--9-9-|
|---------------------------------------------------------|


That's about it. I didn't bother to mark every little variation, afterall this is
a simple song and the variations are very easy to hear.


Oasis albums
2005 Don't Believe the Truth
2002 Heathen Chemistry
2000 Standing On The Shoulder Of Giants
1998 The Masterplan
1997 Be Here Now
1995 Morning Glory (What's The Story)
1994 Definitely Maybe
Morning Glory (What's The Story) tabs
01Hello tabbass tab
02Roll With It tabbass tab
03Wonderwall tabbass tab
04Don't Look Back In Anger tabbass tab
05Hey Now! tabbass tab
06Some Might Say tabbass tab
07Cast No Shadow tabbass tab
08She's Electric tabbass tab
09Morning Glory tabbass tab
10Champagne Supernova tabbass tab

 

1