Search tabs:
Browse artists: 0-9 | A | B | C | D | E | F | G | H | I | J | K | L | M | N | O | P | Q | R | S | T | U | V | W | X | Y | Z
/ The Police / Reggatta de Blanc (1979) / Contact bass tab

Artist: The Police
Song: Contact
Album: Reggatta de Blanc (1979)
Tuning: E-A-D-G
Notes:
~ - Let Ring/Sustain
h - Hammer-On
p - Pull-Off


Intro: This E should sound like on long note
G|-----------------------------------------|
D|-----------------------------------------|
A|--7~~~~~~~~~7~~~~~~~~~7~~~~~~~~~7~~~~~~~-|
E|-----------------------------------------|

G|---------------------------------|
D|---------------------------------|
A|-----------4------------------4--|
E|--5--7--3------5--7p5h7p5--3-----| (x2)



G|-----------------------------------------|
D|-----------------------------------------|
A|--7~~~~~~~~~7~~~~~~~~~7~~~~~~~~~7~~~~~~~-|
E|-----------------------------------------|

G|---------------------------------|
D|---------------------------------|
A|-----------4------------------4--|
E|--5--7--3------5--7p5h7p5--3-----|

G|---------------------------------|
D|---------------------------------|
A|-----------6------------------6--|
E|--7--9--5------7--9p7h9p7--5-----| (x2)



G|-----------------------------------------|
D|-----------------------------------------|
A|--7~~~~~~~~~7~~~~~~~~~7~~~~~~~~~7~~~~~~~-|
E|-----------------------------------------| (x2)

G|---------------------------------|
D|---------------------------------|
A|-----------4------------------4--|
E|--5--7--3------5--7p5h7p5--3-----|

G|---------------------------------|
D|---------------------------------|
A|-----------6------------------6--|
E|--7--9--5------7--9p7h9p7--5-----| (x2)



G|-----------------------------------------|
D|-----------------------------------------|
A|--7~~~~7~~~~7~~~~7~~~~7~~~~7~~~~7~~~7~~~-|
E|-----------------------------------------|

G|---------------------------------|
D|---------------------------------|
A|-----------4------------------4--|
E|--5--7--3------5--7p5h7p5--3-----|

G|---------------------------------|
D|---------------------------------|
A|-----------6------------------6--|
E|--7--9--5------7--9p7h9p7--5-----| (x2)


Outro:
G|-----------------------------------------|
D|-----------------------------------------|
A|--7~~~~~~~~~7~~~~~~~~~7~~~~~~~~~7~~~~~~~-|
E|-----------------------------------------| Til fade out


The Police albums
1983 Synchronicity
1981 Ghost in the Machine
1980 Zenyatta Mondatta
1979 Reggatta de Blanc
1978 Outlandos d'Amour
Reggatta de Blanc tabs
01Message in a Bottle tabbass tab
04Bring on the Night tabbass tab
05Deathwish tabbass tab
06Walking on the Moon tabbass tab
07On Any Other Day tabbass tab
08The Bed's Too Big Without You tabbass tab
09Contact tabbass tab
11No Time This Time tabbass tab

 

1