Search tabs:
Browse artists: 0-9 | A | B | C | D | E | F | G | H | I | J | K | L | M | N | O | P | Q | R | S | T | U | V | W | X | Y | Z
/ The Red Hot Chili Peppers / Californication (1999) / Porcelain bass tab

Porcelain 
by the Red Hot Chili Peppers
from the album Californication
tabbed by Pecca

Slowly

Verse:
G-|----6----------|-------6----------|----6----------|----6----------|   D-|-------7--4----|----------7--4----|-------7--4----|-------7--4----|
A-|-5-------------|------------------|-5-------------|-7--5----------|
E-|-------------5-|-0--5-----------2-|-------------5-|-------------2-|

Verse variation:
G-|----6----------|----6----------|-------------6----------|
D-|-------7--4----|-------7--4----|----------------7--4----|
A-|-5-------------|---------------|-----5-7--5-------------|
E-|-------------5-|-5-----------2-|-5-7------------------5-|

Chorus:
G-|-------------|--------|-------------|----------------9-|
D-|-------------|--------|-------------|------6----9------|
A-|------9------|--------|------9------|-7----------------|
E-|-7---------5-|-7----5-|-7---------5-|------------------|

Ending:
G-|----------------9h11p9-|---|
D-|------6----9-----------|-0-|
A-|-7---------------------|---|
E-|-----------------------|---|

any questins or comments at pecca5@hotmail.com



The Red Hot Chili Peppers albums
2006 Stadium Arcadium
2004 Live in Hyde Park
2002 By The Way
1999 Californication
1995 One Hot Minute
1994 Out In L.A.
1992 Blood Sugar Sex Magik
1989 Mother's Milk
1987 The Uplift Mofo Party Plan
1985 Freaky Styley
1984 Red Hot Chili Peppers
Californication tabs
01Around The World tabbass tab
02Parallel Universe tabbass tab
03Scar Tissue tabbass tab
04Otherside tabbass tab
05Get On Top tabbass tab
06Californication tabbass tab
07Easily tabbass tab
08Porcelain tabbass tab
09Emit Remmus tabbass tab
10I Like Dirt tabbass tab
11This Velvet Glove tabbass tab
12Savior tabbass tab
13Purple Stain tabbass tab
14Right On Time tabbass tab
15Road Trippin' tabbass tab

 

1