Search tabs:
Browse artists: 0-9 | A | B | C | D | E | F | G | H | I | J | K | L | M | N | O | P | Q | R | S | T | U | V | W | X | Y | Z
/ Sevendust / Home (1999) / Feel So bass tab

Song: Feel So
Artist: Sevendust
Album: Home
Label:
Tabbed By: Daine Vineyard

Arranged for 4 string in drop c tuning(2 steps down): Low to high C A D G


Intro
g|------------------------------
d|------------------------------
a|------------------------------
c|-0-0-x-x-0-0-x-x-0-0-x-x-0-0--

verse
g|--------------------------------------
d|--------------------------------------
a|--------------------------------------
c|-2-2-1-1----2-2-0-0-x-x-1-x-x-1-x-1-x-

Chorus			   After Chorus
g|-------------------------|------------------
d|-------------------------|------------------
a|-------------------------|-2-2-2-2--2-2-2-2-
c|-0-5-5-0-0-5-5-5-0-0-0-0-|------------------

Middle
g|-----------------------------------------------------------------------------------
d|-----------------------------------------------------------------------------------
a|-2-2-2-2--2-2-2-2-----------------2-2-2-2-------2-2-2-2----------------------------
c|------------------1-1-1-1-7-7-7-7---------0-0-0---------0-0-0-2-2-2-2-2-2-2-2-7-7-7

Middle 2
g|--------|------------
d|--------|------------
a|--------|------------
c|-1-\-11-|-0-0-5-0-0-5



One More thing....
These tabs are made by myself.  I do not copy them out of tab books or off of the internet.  They
are created by me sitting on my bed with a portable cd player, my bass guitar, and a peice of
paper.  They are probably not right, but they give you something to go by.  I tab them based on
how they sound.  So don't email me or tell me that I suck because I'm trying my best.  Thanks
-Daine


--
__--__(())__--__(())__--__**|**__--__(())__--__(())__--__**|
TV and money rule the world today.  The government can
access all our files.  They can tell us when we took our
first step.  What brand of cereal we buy most.  When will
it stop?  At what will it stop?  Who rules the country?
    WHOEVER HAS THE MOST MONEY HAS THE MOST POWER.
Daine Vineyard                       biohazard21@hotmail.com
ICQ 16162798                        Credit card#-ask the FBI.
            http://btabarchive.cjb.net


Sevendust albums
2003 Seasons
2001 Animosity
1999 Home
1997 Sevendust
Home tabs
01Home tabbass tab
02Denial tabbass tab
03Headtrip tabbass tab
05Reconnect tabbass tab
06Waffle tabbass tab
07Rumble Fish tabbass tab
08Licking Cream tabbass tab
09Grasp tabbass tab
10Crumbled tabbass tab
11Feel So tabbass tab
13Bender tabbass tab

 

1