Search tabs:
Browse artists: 0-9 | A | B | C | D | E | F | G | H | I | J | K | L | M | N | O | P | Q | R | S | T | U | V | W | X | Y | Z
/ Slipknot / Vol. 3: The Subliminal Verses (2004) / The Nameless bass tab

Slipknot
The Nameless - Vol. 3 (The subliminal verses)
Tabed by: Lord Veto
Tunning: B,E,A,D

__ Let Ring

Intro
D|---------------------------------------------------------------------------|
A|---------------------------------------------------------------------------|
E|---------------------------------------------------------------------------|
B|-32--23232--21--23232--32--23232--21--23232--32--23232-5/00000000000000000-|

Heavy Intro
D|---------------------------------------------------------------------------|
A|---------------------------------------------------------------------------|
E|-4-2------------------4-2------------------4-2---4-6-4----4-2--------------|
B|------0000000-1/2/1-0------0000000-1/2/1-0-----3-------33----00000-1/2/1-0-|

Verse
D|---------------------|
A|---------------------|
E|---------------------|x3
B|-10-01010-10---01010-|

D|------------------------|
A|------------------------|
E|------------------------|x1
B|-10-01010-1000000000000-|

Pre - Chorus: Same as the Heavy Intro

Chorus: The bass doesn't play anything during the first 2 chorus

Pre - verse II
D|------------------------------------------------|
A|------------------------------------------------|
E|------------------------------------------------|
B|-32--23232--21--23232--32--23232--21--23232--9/-|


Bridge (Listen song for timin)
D|----------------------------------------------------------|
A|----------------------------------------------------------|
E|---------------------3-5-3------------------------2-4-2---|x7
B|-10-00-100-10-00-100-------3--10-00-100-10-00-100-------2-|

D|----------------------------------------------------------------------|
A|----------------------------------------------------------------------|
E|---------------------3-5-3------------------------2-4-2---3-5-3-------|x1
B|-10-00-100-10-00-100-------3--10-00-100-10-00-100-------2-------3-000-|

Last Chorus
D|----------------------------|
A|----------------------------|
E|----------------------------|x2
B|-0-03-333-5-55-3-37-77-2-22-|

D|-----------------------------------|
A|-----------------------------------|
E|-----------------------------------|
B|-0-03-333-55555555-3-3777-22222222-|

D|------------------------------|
A|------------------------------|
E|------------------------------|
B|-0-03-333-55555555-3-3777____-|

Outro
D|----------------------------------------------------------|
A|----------------------------------------------------------|
E|---------------------3-5-3------------------------2-4-2---|x3
B|-10-00-100-10-00-100-------3--10-00-100-10-00-100-------2-|

D|--------------------------------------------------|
A|--------------------------------------------------|
E|---------------------3-5-3------------------------|x1
B|-10-00-100-10-00-100-------3--10-00-100-10-00-100-|

Thats all, this almost 100% correct so enjoy

PLEASE RATE THIS TAB


Slipknot albums
2004 Vol. 3: The Subliminal Verses
2001 Iowa
2000 Slipknot
1997 Mate. Feed. Kill. Repeat
Vol. 3: The Subliminal Verses tabs
02The Blister Exists tabbass tab
03Three Nil tabbass tab
04Duality tabbass tab
05Opium of the People tabbass tab
06Circle tabbass tab
07Welcome tabbass tab
08Vermilion tabbass tab
09Pulse of the Maggots tabbass tab
10Before I Forget tabbass tab
11Vermilion, Pt. 2 tabbass tab
12The Nameless tabbass tab
13The Virus of Life tabbass tab
14Danger - Keep Away tabbass tab

 

1