Search tabs:
Browse artists: 0-9 | A | B | C | D | E | F | G | H | I | J | K | L | M | N | O | P | Q | R | S | T | U | V | W | X | Y | Z
/ Stone Roses / The Stone Roses (1989) / I Wanna Be Adored bass tab

STONE ROSES - I WANNA BE ADORED

TABBED BY JIM COTTRELL (BOBTUCKER9@HOTMAIL.COM) WWW.CLIK.TO/AMBRE


INTRO / VERSE / CHORUS

G ---------------------------------------------------------------
D ---------------------------------------------------------------
A ----------5-5-5-5---------5-7-5--7-------7-7--9-7-7--9-7-7-----
E --3-3-3-3---------3-3-3-3----------0-0-0--------------------0--

BRIDGE

G ---------------------       G -----------------------------
D ---------------------       D -----------------------------
A --5-5---3-0-3-0------ X8    A --5-5-5-5-5-5-5-5-5-5-5-5-5--
E ---------------------       E -----------------------------

THIS IS PLAYED WHEN IAN IS SINGING THE 'YOU ADORE ME' BIT, IT GOES
BACK INTO THE OTHER RIFF AFTER 'I GOTTA BE ADORED'
G ---------------------------------------------------------------
D ---------------------------------------------------------------
A ----------5-5-5-5---------5-7-5--7-------7-7--7-7-7--7-7-7-----
E --3-3-3-3---------3-3-3-3----------0-0-0--------------------0--

OUTRO

G ----------------------------
D ----------------------------
A -------5-5-5-5------5---7---
E --3--3----------3-----------


WWW.CLIK.TO/AMBRE


Stone Roses albums
1994 Second Coming
1989 The Stone Roses
The Stone Roses tabs
01I Wanna Be Adored tabbass tab
02She Bangs The Drums tabbass tab
03Elephant Stone tabbass tab
04Waterfall tabbass tab
05Don't Stop tabbass tab
06Bye Bye Badman tabbass tab
07Elizabeth My Dear tabbass tab
08(Song For My) Sugar Spun Sister tabbass tab
09Made Of Stone tabbass tab
10Shoot You Down tabbass tab
11This Is The One tabbass tab
12I Am The Resurrection tabbass tab

 

1