Search tabs:
Browse artists: 0-9 | A | B | C | D | E | F | G | H | I | J | K | L | M | N | O | P | Q | R | S | T | U | V | W | X | Y | Z
/ Stone Roses / The Stone Roses (1989) / Made Of Stone bass tab

Stone Roses
Made of Stone

Tabbed by Iain Irvine

Verse From End of Intro

Only do the bit b4 the * once
             * D			G
G|--2-0---------|---------------------------|-------------------
D|------2-0-----|---------------------------|-------------------
A|----------2-0-|-------------------5-------|-------------------
E|--------------|-7-7-5-7-7-5-7-7-5---7-5-3-|-5-5-3-5-5-3-5-5-3-

           F                           E
G|---------|---------------------------|-------------------------
D|---------|---------------------------|-------------------------
A|-3-------|-------------------1-------|-2-2-0-0----------2-0-2-0
E|---5-3-1-|-3-3-1-3-3-1-3-3-1---3-1-0-|---------2-2-0-0---------


G|---------
D|---------
A|---------
E|-2-0-2-0-


Stone Roses albums
1994 Second Coming
1989 The Stone Roses
The Stone Roses tabs
01I Wanna Be Adored tabbass tab
02She Bangs The Drums tabbass tab
03Elephant Stone tabbass tab
04Waterfall tabbass tab
05Don't Stop tabbass tab
06Bye Bye Badman tabbass tab
07Elizabeth My Dear tabbass tab
08(Song For My) Sugar Spun Sister tabbass tab
09Made Of Stone tabbass tab
10Shoot You Down tabbass tab
11This Is The One tabbass tab
12I Am The Resurrection tabbass tab

 

1