Search tabs:
Browse artists: 0-9 | A | B | C | D | E | F | G | H | I | J | K | L | M | N | O | P | Q | R | S | T | U | V | W | X | Y | Z
/ Stone Roses / The Stone Roses (1989) / Waterfall bass tab

STONE ROSES - WATERFALL

TABBED BY JIM COTTRELL (BOBTUCKER9@HOTMAIL.COM WWW.CLIK.TO/AMBRE

MAIN RIFF

G ------11-----------------
D ------------9h11-9h11----
A --9----------------------
E -------------------------

\\'TO STEAL WHAT SHE NEVER COULD OWN\\' BIT

G ----------------------------------------------
D --9-9-9-8-8-8-6---6/9-9-9-8-8-8-11----9h11----
A ----------------------------------------------
E -----------------------------------9-9--------
THAT GOES STRAIGHT INTO THE MAIN RIFF

THE BASS DOESNT PLAY ON THE \\'SHE\\'LL CARRY ON THROUGH IT ALL
SHE\\'S A WATERFALL\\' BIT BUT IF YOU DO WANT TO PLAY IT HERE IT IS

G ----------------------
D ----------------------
A --7-7-7-6-6-6-4--4/9--
E ----------------------
ONCE AGAIN THAT GOES STRAIGHT INTO THE MAIN RIFF

THE LITTLE INTERLUDE BEFORE THE SOLO GOES LIKE THIS

G --------------------------------------------------------------
D --6-6-6--6-6-6--9-9-9--9-9-9--6-6-6--6-6-6--9-9-9------9h11---
A --------------------------------------------------------------
E ---------------------------------------------------9-9--------
THE GOES STRAIGHT INTO THE MAIN RIFF
THEN REPEAT THE MAIN RIFF UNTIL THE END

WWW.CLIK.TO/AMBRE


Stone Roses albums
1994 Second Coming
1989 The Stone Roses
The Stone Roses tabs
01I Wanna Be Adored tabbass tab
02She Bangs The Drums tabbass tab
03Elephant Stone tabbass tab
04Waterfall tabbass tab
05Don't Stop tabbass tab
06Bye Bye Badman tabbass tab
07Elizabeth My Dear tabbass tab
08(Song For My) Sugar Spun Sister tabbass tab
09Made Of Stone tabbass tab
10Shoot You Down tabbass tab
11This Is The One tabbass tab
12I Am The Resurrection tabbass tab

 

1