Search tabs:
Browse artists: 0-9 | A | B | C | D | E | F | G | H | I | J | K | L | M | N | O | P | Q | R | S | T | U | V | W | X | Y | Z
/ System Of A Down / Mezmerize (2005) / Sad Statue bass tab

Sad Statue

Bass Tablature

System of a Down

F#||------------------|------------------|------------------|------------------|
C#||------------------|------------------|------------------|------------------|
G#||------------------|------------------|------------------|------------------|
C#||------------------|------------------|------------------|------------------|



-------------------------------|-------------------------------|
-------------------------------|-------------------------------|
--5----------------------------|--5-0-5-0-5-0-5-0-5-0-5-0-6----|
-------0-0-0-0-0-0-0-0-0-0-0-0-|-------------------------------|



-------------------------------|--------------------------|
-------------------------------|--------------------------|
--5----------------------------|------------6----8----6---|
-------0-0-0-0-0-0-0-0-0-0-0-0-|-0-0-0-0------------------|



-------------------------------|-------------------------------|
-------------------------------|-------------------------------|
--5----------------------------|--5-0-5-0-5-0-5-0-5-0-5-0-6----|
-------0-0-0-0-0-0-0-0-0-0-0-0-|-------------------------------|



-----------------------------|--------------------------|
-----------------------------|--------------------------|
--5--------------------------|-----6--8--6-----6--8--6--|
-------0-0-0-0-0-0-0-0-12/---|--0----------0------------|



-------------------------|-------------------------------|
-------------------------|-------------------------------|
--5----------------------|--5-0-5-0-5-0-5-0-5-0-5-0-6----|
-------0--0--0--0--0--0--|-------------------------------|



------------------------|----------------------|-------------------------|
------------------------|-----==---------------|-------------------------|
--5---------------------|--------6----8----6---|--5----------------------|
------0--0--0--0--0--0--|--0-0-----------------|-------0--0--0--0--0--0--|



-------------------------------|------------------------|
-------------------------------|------------------------|
--5-0-5-0-5-0-5-0-5-0-5-0-6----|--5---------------------|
-------------------------------|------0--0--0--0--12/---|



--------------------------|--------------------------|
--------------------------|--------------------------|
-----6--8--6-----6--8--6--|-----6--8--6-----6--8--6--|
--0-----------0-----------|--0-----------0-----------|



--------------------------|--------------------------|
--------------------------|--------------------------|
-----6--8--6-----6--8--6--|-----6--8--6-----6--8--6--|
--0-----------0-----------|--0-----------0-----------|





--------------------------|-------------------------|-------------------------|
--------------------------|-------------------------|-------------------------|
-----6--8--6-----6--8--6--|--5--5--5--5--5--5--6----|--5--5--5--5--5--5--6----|
--0-----------0-----------|-------------------------|-------------------------|



-------------------------|-------------------------|--------------------------|
-------------------------|-------------------------|--------------------------|
--5--5--5--5--5--5--6----|--5--5--5--5--5--5--6----|-----6--8--6-----6--8--6--|
-------------------------|-------------------------|--0-----------0-----------|



--------------------------|--------------------------|
--------------------------|--------------------------|
-----6--8--6-----6--8--6--|-----6--8--6-----6--8--6--|
--0-----------0-----------|--0-----------0-----------|



--------------------------|-------------------------|-------------------------|
--------------------------|-------------------------|-------------------------|
-----6--8--6-----6--8--6--|--5--5--5--5--5--5--6----|--5--5--5--5--5--5--6----|
--0-----------0-----------|-------------------------|-------------------------|



-------------------------|-------------------------|------------------|
-------------------------|-------------------------|------------------|
--5--5--5--5--5--5--6----|--5--5--5--5--5--5--6----|------------------|
-------------------------|-------------------------|--1---------------|






------------------|-------------------|------------------|-------------------|
------------------|-------------------|------------------|-------------------|
------------------|-------------------|------------------|-------------------|
------------------|--5----------------|------------------|--0----------------|



------------------|-------------------|------------------|-------------------|
------------------|-------------------|------------------|-------------------|
------------------|-------------------|------------------|-------------------|
------------------|--3----------------|------------------|--1----------------|



------------------|-------------------|------------------|-------------------|
------------------|-------------------|------------------|-------------------|
------------------|-------------------|------------------|-------------------|
------------------|--5----------------|------------------|--0----------------|



------------------|-------------------|------------------|
------------------|-------------------|------------------|
------------------|-------------------|------------------|
------------------|--3----------------|------------------|



--------------------------|--------------------------|
--------------------------|--------------------------|
-----6--8--6-----6--8--6--|-----6--8--6-----6--8--6--|
--0-----------0-----------|--0-----------0-----------|






--------------------------|--------------------------|-------------------------|
--------------------------|--------------------------|-------------------------|
-----6--8--6-----6--8--6--|-----6--8--6-----6--8--6--|--5--5--5--5--5--5--6----|
--0-----------0-----------|--0-----------0-----------|-------------------------|



-------------------------|-------------------------|-------------------------|
-------------------------|-------------------------|-------------------------|
--5--5--5--5--5--5--6----|--5--5--5--5--5--5--6----|--5--5--5--5--5--5--6----|
-------------------------|-------------------------|-------------------------|



--------------------------|--------------------------|
--------------------------|--------------------------|
-----6--8--6-----6--8--6--|-----6--8--6-----6--8--6--|
--0-----------0-----------|--0-----------0-----------|



--------------------------|--------------------------|-------------------------|
--------------------------|--------------------------|-------------------------|
-----6--8--6-----6--8--6--|-----6--8--6-----6--8--6--|--5--5--5--5--5--5--6----|
--0-----------0-----------|--0-----------0-----------|-------------------------|



-------------------------|-------------------------|-------------------------|
-------------------------|-------------------------|-------------------------|
--5--5--5--5--5--5--6----|--5--5--5--5--5--5--6----|--5--5--5--5--5--5--6----|
-------------------------|-------------------------|-------------------------|






-------------------|------------------|-------------------|------------------|
-------------------|------------------|-------------------|------------------|
-------------------|------------------|-------------------|------------------|
--1----------------|------------------|--5----------------|------------------|



-------------------|------------------|-------------------|------------------|
-------------------|------------------|-------------------|------------------|
-------------------|------------------|-------------------|------------------|
--0----------------|------------------|--3----------------|------------------|



-------------------|------------------|-------------------|------------------|
-------------------|------------------|-------------------|------------------|
-------------------|------------------|-------------------|------------------|
--1----------------|------------------|--5----------------|------------------|



-------------------|------------------|-------------------|------------------|
-------------------|------------------|-------------------|------------------|
-------------------|------------------|-------------------|------------------|
--0----------------|------------------|--3----------------|------------------|



-------------------|------------------|------------------|------------------|
-------------------|------------------|------------------|------------------|
-------------------|------------------|------------------|------------------|
--3----------------|------------------|------------------|------------------|






------------------|------------------|------------------|------------------|
------------------|------------------|------------------|------------------|
------------------|------------------|------------------|------------------|
------------------|------------------|------------------|------------------|



------------------|------------------|--------------------------|
------------------|------------------|--------------------------|
------------------|------------------|--6--6--6--6--6--6--6--6--|
------------------|------------------|--------------------------|



--------------------------|--------------------------|
--------------------------|--------------------------|
--6--6--6--6--6--6--6--6--|--------------------------|
--------------------------|--5--5--5--5--5--5--5--5--|



--------------------------|--------------------------|
--------------------------|--------------------------|
--------------------------|--5--5--5--5--5--5--5--5--|
--5--5--5--5--5--5--5--5--|--------------------------|



--------------------------|--------------------------|
--------------------------|--------------------------|
--5--5--5--5--5--5--5--5--|--6--6--6--6--6--6--6--6--|
--------------------------|--------------------------|






--------------------------|-------------------------------|
--------------------------|-------------------------------|
--6--6--6--6--6--6--6--6--|--5----------------------------|
--------------------------|-------0-0-0-0-0-0-0-0-0-0-0-0-|



-------------------------------|-------------------------------|
-------------------------------|-------------------------------|
--5-0-5-0-5-0-5-0-5-0-5-0-6----|--5----------------------------|
-------------------------------|-------0-0-0-0-0-0-0-0-0-0-0-0-|



-------------------------|-------------------------------|
-------------------------|-------------------------------|
--------------6--8--6----|--5----------------------------|
--0-0-0-0----------------|-------0-0-0-0-0-0-0-0-0-0-0-0-|



-------------------------------|-----------------------------|
-------------------------------|-----------------------------|
--5-0-5-0-5-0-5-0-5-0-5-0-6----|--5--------------------------|
-------------------------------|-------0-0-0-0-0-0-0-0-12/---|



-----------------------------|-----------------------|
-----------------------------|-----------------------|
-----6--8--6--------6--8--6--|--5--------------------|
--0-------------0------------|-----0--0--0--0--0--0--|






-------------------------------|------------------------|
-------------------------------|------------------------|
--5-0-5-0-5-0-5-0-5-0-5-0-6----|--5---------------------|
-------------------------------|------0--0--0--0--0--0--|



-----------------------|-------------------------|
-----------------------|-------------------------|
--------6----8----6----|--5----------------------|
--0--0-----------------|-------0--0--0--0--0--0--|



---------------------------------------------------------|
-------------------------------|-------------------------|
--5-0-5-0-5-0-5-0-5-0-5-0-6----|--5----------------------|
-------------------------------|-------0--0--0--0--12/---|



----------------------------|-------------------|------------------|
----------------------------|-------------------|------------------|
-----6--8--6-------6--8--6--|-------------------|------------------|
--0-------------0-----------|--1----------------|------------------|



-------------------|------------------|-------------------|------------------|
-------------------|------------------|-------------------|------------------|
-------------------|------------------|-------------------|------------------|
--5----------------|------------------|--0----------------|------------------|




-------------------|------------------|-------------------|------------------|
-------------------|------------------|-------------------|------------------|
-------------------|------------------|-------------------|------------------|
--3----------------|------------------|--1----------------|------------------|



-------------------|------------------|-------------------|------------------|
-------------------|------------------|-------------------|------------------|
-------------------|------------------|-------------------|------------------|
--5----------------|------------------|--0----------------|------------------|



-------------------|------------------|-------------------|------------------|
-------------------|------------------|-------------------|------------------|
-------------------|------------------|-------------------|------------------|
--3----------------|------------------|--3----------------|------------------|



--------------------------|-------------------------------|
--------------------------|-------------------------------|
--5-----------5-----------|--5-0-5-0-5-0-5-0-5-0-5-0-6----|
-----0--0--0-----0--0--0--|-------------------------------|



---------------------------|-----------------------|--------------------------|
---------------------------|-----------------------|--------------------------|
--5-------------5----------|--------6----8----6----|--5-----------5-----------|
-----0--0--0------0--0--0--|--0--0-----------------|-----0--0--0-----0--0--0--|






-------------------------------|--------------------------|
-------------------------------|--------------------------|
--5-0-5-0-5-0-5-0-5-0-5-0-6----|--5-----------5-----------|
-------------------------------|-----0--0--0-----0--0--0--|





--------------------------|--------------------||
--------------------------|--------------------||
-----6--8--6-----6--8--6--|--5-----------------||
--0-----------0-----------|--------------------||


System Of A Down albums
2005 Mezmerize
2002 Steal This Album!
2001 Toxicity
1998 System Of A Down
Mezmerize tabs
01Soldier Side (Intro) tabbass tab
02B.Y.O.B. tabbass tab
03Revenga tabbass tab
04Cigaro tabbass tab
05Radio/Video tabbass tab
06This Cocaine Makes Me Feel Like I'm on This Song tabbass tab
07Violent Pornography tabbass tab
08Question! tabbass tab
09Sad Statue tabbass tab
10Old School Hollywood tabbass tab
11Lost in Hollywood tabbass tab

 

1