Search tabs:
Browse artists: 0-9 | A | B | C | D | E | F | G | H | I | J | K | L | M | N | O | P | Q | R | S | T | U | V | W | X | Y | Z
/ The Cure / Boys Don't Cry (1980) / Another Day bass tab

Band: The Cure
Song: Another Day
Album: Boys don't cry
Tabbed by: eleanor/freshly_squashed_fly/jeannie_nitro
(eleonorameregalli@hotmail.com)
---------------------------------------------------------------------

Intro

G|------------------|
D|------------------|
A|----2-----2-------|   x 2
E|------------------|

Verse (0:20)

G|------------------------------------------------------------------------------------|
D|------------------------------------------------------------------------------------|
A|-5--55-(0)-5--55--2--22-(0)-2--22--5--55--(0)-5--55--2--22-(0)-2-2------------------|
E|------------------------------------------------------------------3-3-3-(5)-3-1-1-1-|


G|--------------------------------------------|
D|--------------------------------------------|
A|--2-2-(0)-------------------2-2-(0)-2-2-----|
E|----------3-3-3-(5)-1-1-1-------------------|

1:38

Something, something holds me...

G|----------------------------------|------------------------------------|
D|----------------------------------|------------------------------------|
A|---3---5---3---(0)---3-3---5---3--|---0--2-2---5---2---(0)-2-2---5--2--| x 2
E|----------------------------------|------------------------------------|

1:57

G|----------------------------------|------------------------------------|
D|----------------------------------|------------------------------------|
A|---3---5---3---(0)---3-3---5---3--|---0--2-2---5---2---(0)-2-2---7--5--|
E|----------------------------------|------------------------------------|


G|----------------------------------|-------------------------------------------|
D|----------------------------------|-------------------------------------------|
A|---3---5---3---(0)---3-3---5---3--|---0--2-2---7---5---(0)-2-2---7--5----0----|
E|----------------------------------|-----------------------------------------5-|

G|-------------------------------------------|
D|-------------------------------------------|
A|---0--2-2---7---5---(0)-2-2---7--5----0----| x 2
E|-----------------------------------------5-|

Verse

Outro

G|-----------------------|
D|-----------------------|
A|-----2-2--------2-2-2--|
E|--5--------------------|


The Cure albums
2004 The Cure
2000 Bloodflowers
1996 Wild Mood Swings
1992 Wish
1989 Disintegration
1987 Kiss Me, Kiss Me, Kiss Me
1986 Staring At The Sea (The Singles)
1985 Head on the Door
1984 Japanese Whispers
1982 Pornography
1981 Faith
1980 Boys Don't Cry
1980 Seventeen Seconds
1979 Three Imaginary Boys
Boys Don't Cry tabs
01Boys Don't Cry tabbass tab
0310:15 Saturday Night tabbass tab
06Jumping Someone Else's Train tabbass tab
07Subway Song tabbass tab
08Killing An Arab tabbass tab
09Fire In Cairo tabbass tab
10Another Day tabbass tab
11Grinding Halt tabbass tab
12Three Imaginary Boys tabbass tab

 

1