Search tabs:
Browse artists: 0-9 | A | B | C | D | E | F | G | H | I | J | K | L | M | N | O | P | Q | R | S | T | U | V | W | X | Y | Z
/ The Strokes / Room on Fire (2003) / Automatic Stop bass tab

here are all the parts


   riff one
G||---------------------------|--------------------------|
D||*--4--4--4--4--4--4--4--4--|--------------------------|
A||*--------------------------|--6--6--6--6--6--6--6--6--|
E||---------------------------|--------------------------|

--------------------------|---------------------------||
--------------------------|--3--3--3-----------------*||
--4--4--4--4--4--4--4--4--|-----------4--4--4--------*||
--------------------------|--------------------6--6---||



  riff two
||--------------------------|--------------------------|--------------------------|
||--------------------------|--------------------------|--------------------------|
||--------------------------|--------------------------|--------------------------|
||--4--4--4--4--4--4--4--4--|--2--2--2--2--2--2--2--2--|--4--4--4--4--4--4--4--4--|

--------------------------|--------------------------|--------------------------||
--------------------------|--------------------------|--------------------------||
--------------------------|--------------------------|--------------------------||
--7--7--7--7--7--7--7--7--|--9--9--9--9--9--9--9--9--|--9--9--9--9--9--9--9--9--||



  riff one
||--------------------------|--------------------------|--------------------------|
||--4--4--4--4--4--4--4--4--|--------------------------|--------------------------|
||--------------------------|--6--6--6--6--6--6--6--6--|--4--4--4--4--4--4--4--4--|
||--------------------------|--------------------------|--------------------------|

--------------------------|
--3--3--3-----------------|
-----------4--4--4--------|
--------------------6--6--|

--------------------------|--------------------------|--------------------------|
--4--4--4--4--4--4--4--4--|--------------------------|--------------------------|
--------------------------|--6--6--6--6--6--6--6--6--|--4--4--4--4--4--4--4--4--|
--------------------------|--------------------------|--------------------------|

--------------------------|
--------------------------|
--4--4--4--4--4--4--4--4--|
--------------------------|



  chorus
||---------------------------|----------------------------|
||*--------------------------|----------------------------|
||*--9--9--9--6--6--6--------|-----------8--8--8--11--11--|
||---------------------6--6--|--9--9--9-------------------|

--------------------------|--------------------------|
--------------------------|--------------------------|
--6--6--6-----------------|--6--6--6-----------------|
-----------6--6--6--2--2--|-----------6--6--6--2--2--|

--------------------------|---------------------------|
--------------------------|---------------------------|
--------------------------|---------------------------|
--4--4--4--4--4--4--4--4--|--4--4--4--4--4--4--4--4---|

--------------------------|---------------------------||
--------------------------|--------------------------*||
--------------------------|--------------------------*||
--7--7--7--7--7--7--7--7--|--7--7--7--7--7--7--7--7---||



play this before the second chorus



||--------------------------|--------------------------|--------------------------|
||--------------------------|--------------------------|--------------------------|
||--------------------------|--------------------------|--------------------------|
||--4--4--4--4--4--4--4--4--|--2--2--2--2--2--2--2--2--|--4--4--4--4--4--4--4--4--|

--------------------------|--------------------------|--------------------------||
--------------------------|--------------------------|--------------------------||
--------------------------|--------------------------|--------------------------||
--7--7--7--7--7--7--7--7--|--9--9--9--9--9--9--9--9--|--7--7--7--7--7--7--7--7--||


The Strokes albums
2003 Room on Fire
2001 Is This It
Room on Fire tabs
01What Ever Happened? tabbass tab
02Reptilia tabbass tab
03Automatic Stop tabbass tab
0412:51 tabbass tab
05You Talk Way Too Much tabbass tab
06Between Love & Hate tabbass tab
07Meet Me in the Bathroom tabbass tab
08Under Control tabbass tab
09The Way It Is tabbass tab
10The End Has No End tabbass tab
11I Can't Win tabbass tab

 

1