Search tabs:
Browse artists: 0-9 | A | B | C | D | E | F | G | H | I | J | K | L | M | N | O | P | Q | R | S | T | U | V | W | X | Y | Z
/ The Strokes / Room on Fire (2003) / Between Love & Hate bass tab

The Strokes: Between Love and Hate
Album: Room on Fire
Instrument: Bass
Tabed by Desaurido(brunogf666@hotmail.com)

Hi there boys and gals! First off, Nikolai Fraiture uses
a pick to play this song(actually he uses it in most
songs) and in this one ya gonna need as well.

#! = play # eight times

Intro: Drums

First and Second Verse- Watched her as she wiped her eyes...
G|-------------|---------------|
D|-------------|---------------|
A|-------------|---5------4----|
E|--5-----9--7-|-------------7-|

Third and Fourth verse - think about that high school dance...
G|-------------|-------------|
D|-------------|-------------|
A|-------------|5!5!--4!-----|
E|5!5!--9!--7!-|----------7!-|

Bridge - I never needed anybody...
G|------------------------------------| x2
D|------------------------------------|
A|----------5-5-5-5-----------5-5-5-5-|
E|-5-5-5-5-0--------05-5-5-5-0--------|

Chorus(at least I think)- Am i wrong?...
G|--------------| x2
D|--------------|
A|-------5!-4!--|
E|-5!-7!--------|

Guitar Solo
G|---------------------------|
D|---------------------------|
A|---------------5!-5!-5!-5!-|
E|-5!-5!-5!-5!-5!------------|

Fith and Sixth Verse - She'd be in the kitchen...
G|-------------|---------------|
D|-------------|---------------|
A|-------------|---5------4----|
E|--5-----9--7-|-------------7-|

Seventh and Eighth Verse - P.S. of I may ask why?...
G|-------------|-------------|
D|-------------|-------------|
A|-------------|5!5!--4!-----|
E|5!5!--9!--7!-|----------7!-|

Bridge - I never needed anybody...
G|------------------------------------| x2
D|------------------------------------|
A|----------5-5-5-5-----------5-5-5-5-|
E|-5-5-5-5-0--------05-5-5-5-0--------|

Chorus - Am i wrong?...
G|----------------| x2
D|----------------|
A|-------5!-4!-4!-|
E|-5!-7!----------|

Hope all is right? Forgive my harsh english, it is no my primary
language. This is the first tab i ever made. Thanks? Critics? Something
wrong? Give me an e-mail: brunogf666@hotmail.com


The Strokes albums
2003 Room on Fire
2001 Is This It
Room on Fire tabs
01What Ever Happened? tabbass tab
02Reptilia tabbass tab
03Automatic Stop tabbass tab
0412:51 tabbass tab
05You Talk Way Too Much tabbass tab
06Between Love & Hate tabbass tab
07Meet Me in the Bathroom tabbass tab
08Under Control tabbass tab
09The Way It Is tabbass tab
10The End Has No End tabbass tab
11I Can't Win tabbass tab

 

1