Search tabs:
Browse artists: 0-9 | A | B | C | D | E | F | G | H | I | J | K | L | M | N | O | P | Q | R | S | T | U | V | W | X | Y | Z
/ The Strokes / Room on Fire (2003) / The End Has No End bass tab

all the parts are there
very easy
except for the intro/outro use only down strokes


    16th notes
G||----------------------------------|----------------------------------|
D||--7-7-7-7-7-7-7-7-----------------|--6-6-6-6-6-6-6-6-----------------|
A||------------------7-7-7-7-7-7-7-7-|------------------6-6-6-6-6-6-6-6-|
E||----------------------------------|----------------------------------|


  riff one - 8th notes (play this during the solo as well)
||--------------------------|--------------------------|
||--------------------------|--------------------------|
||--4--4--4--4--4--4--4--4--|--4--4--4--4--4--4--4--4--|
||--------------------------|--------------------------|

--------------------------|--------------------------||
--------------------------|--------------------------||
--------------------------|--------------------------||
--4--4--4--4--4--4--4--4--|--4--4--4--4--4--4--4--4--||



  riff two
||---------------------------|--------------------------|
||*--------------------------|--------------------------|
||*--4--4--4--4--4--4--4--4--|--------------------------|
||---------------------------|--6--6--6--6--6--6--6--6--|

--------------------------|---------------------------|
--------------------------|--------------------------*|
--8--8--8--8--8--8--8--8--|--------------------------*|
--------------------------|--4--4--4--4--4--4--4--4---|

--------------------------|--------------------------|
--------------------------|--------------------------|
--4--4--4--4--4--4--4--4--|--------------------------|
--------------------------|--6--6--6--6--6--6--6--6--|

--------------------------|--------------------------|
--------------------------|--------------------------|
--------------------------|--------------------------|
--1--1--1--1--1--1--1--1--|--4--4--4--4--4--4--4--4--|

--------------------------|--------------------------|
--------------------------|--------------------------|
--4--4--4--4--4--4--4--4--|--------------------------|
--------------------------|--6--6--6--6--6--6--6--6--|

--------------------------|--------------------------|
--------------------------|--------------------------|
--8--8--8--8--8--8--8--8--|--8--8--8--8--8--8--8--8--|
--------------------------|--------------------------|

--------------------------|--------------------------||
--------------------------|--------------------------||
--------------------------|--------------------------||
--4--4--4--4--4--4--4--4--|--4--4--4--4--4--4--4--4--||




  riff three
||---------------------------|--------------------------|
||*--------------------------|--------------------------|
||*--------------------------|--4--4--4--4--4--4--4--4--|
||---2--2--2--2--2--2--2--2--|--------------------------|

--------------------------|---------------------------||
--------------------------|--------------------------*||
--------------------------|--6--6--6--6--6--6--6--6--*||
--4--4--4--4--4--4--4--4--|---------------------------||


repeat the above.
after riff three (chorus) play the 6(D#) 3 more measures as show below.


--------------------------|--------------------------|--------------------------||
--------------------------|--------------------------|--------------------------||
--6--6--6--6--6--6--6--6--|--6--6--6--6--6--6--6--6--|--6--6--6--6--6--6--6--6--||
--------------------------|--------------------------|--------------------------||



 riff one (outro)
||----------------------------------|----------------------------------||
||--7-7-7-7-7-7-7-7-----------------|--6-6-6-6-6-6-6-6-----------------||
||------------------7-7-7-7-7-7-7-7-|------------------6-6-6-6-6-6-6-6-||
||----------------------------------|----------------------------------||


The Strokes albums
2003 Room on Fire
2001 Is This It
Room on Fire tabs
01What Ever Happened? tabbass tab
02Reptilia tabbass tab
03Automatic Stop tabbass tab
0412:51 tabbass tab
05You Talk Way Too Much tabbass tab
06Between Love & Hate tabbass tab
07Meet Me in the Bathroom tabbass tab
08Under Control tabbass tab
09The Way It Is tabbass tab
10The End Has No End tabbass tab
11I Can't Win tabbass tab

 

1