Search tabs:
Browse artists: 0-9 | A | B | C | D | E | F | G | H | I | J | K | L | M | N | O | P | Q | R | S | T | U | V | W | X | Y | Z
/ The Strokes / Room on Fire (2003) / The Way It Is bass tab

start to finish
listen to the bass drum for the rhthym on the verse


   riff one                                             2x
G||---------------------------|---------------------------||
D||*--------------------------|--------------------------*||
A||*--2--2--0--2--2--2--0--2--|--2--2--0--2--2--2--0--2--*||
E||---------------------------|---------------------------||


verse one
---------------------------|---------------------------|---------------------------|
---------------------------|---------------------------|---------------------------|
--7-7--7--7-7--7-7--7-7----|--9-9--9--9-9--9-9--9-9----|--7-7--7--7-7--7-7--7-7----|
---------------------------|---------------------------|---------------------------|


  riff one
||---------------------------|---------------------------||
||*--------------------------|--------------------------*||
||*--2--2--0--2--2--2--0--2--|--2--2--0--2--2--2--0--2--*||
||---------------------------|---------------------------||


  verse two                                              2x
||----------------------------|----------------------------||
||*---------------------------|---------------------------*||
||*--7-7--7--7-7--7-7--7-7----|--9-9--9--9-9--9-9--9-9----*||
||----------------------------|----------------------------||

||---------------------------|--------------------------|---------------------------|
||-------9-------------------|--------------------------|---------------------------|
||--7-7-----7-7--7-7--7-7----|--9-9--9--9-9--9-9--9-9---|-9-9--9--9-9--9-9--9-9--0--|
||---------------------------|--------------------------|---------------------------|




 chorus                                               2x
|---------------------------|---------------------------||
|*--------------------------|--------------------------*||
|*--2--2--2--2--4--4--4--4--|--------------------------*||
|---------------------------|--2--2--2--2--0--0--0--0---||




break
---------------------------|---------------------------|
---------------------------|---------------------------|
--7-7--7--7-7--7-7--7-7----|--9-9--9--9-9--9-9--9-9/---|
---------------------------|---------------------------|

------------------|------------------|------------------|------------------|
------------------|------------------|------------------|------------------|
------------------|------------------|------------------|------------------|
------------------|------------------|------------------|------------------|

----------------------------------|----------------------------------|
----------------------------------|----------------------------------|
--14--14--12--14--14--14--12--14--|--14--14--12--14--14--14--12--14--|
----------------------------------|----------------------------------|

----------------------------------|----------------------------------|
----------------------------------|----------------------------------|
--14--14--12--14--14--14--12--14--|--14--14--12--14--14--14--12--14--|
----------------------------------|----------------------------------|

----------------------------------|----------------------------------|
--16--16--14--16--16--16--14--16--|--16--16--14--16--16--16--14--16--|
----------------------------------|----------------------------------|
----------------------------------|----------------------------------|

----------------------------------|--------------------------|
--16--16--14--16--16--16--14--16--|--16--16------16--16------|
----------------------------------|--------------------------|
----------------------------------|--------------------------|


 verse                                                   2x
|----------------------------|----------------------------||
|*---------------------------|---------------------------*||
|*--7-7--7--7-7--7-7--7-7----|--9-9--9--9-9--9-9--9-9----*||
|----------------------------|----------------------------||

---------------------------|----------------------------|
---------------------------|----------------------------|
--7-7--7--7-7--7-7--7-7----|--9-9--9--9-9--9-9--9-9--0--|
---------------------------|----------------------------|


 chorus                                                6x
|---------------------------|---------------------------||
|*--------------------------|--------------------------*||
|*--2--2--2--2--4--4--4--4--|--------------------------*||
|---------------------------|--2--2--2--2--0--0--0--0---||


outro
--------------------------|--------------------------|
--------------------------|--------------------------|
--2--2--2--2--4--4--4--4--|--------------------------|
--------------------------|--2--2--2--2--2--2--2--2--|

--------------------------|--------------------------|
--------------------------|--------------------------|
--------------------------|--------------------------|
--0--0--0--0--0--0--0--0--|--0--0--0--0--0--0--0--0--|

--------------------------|-------------------||
--------------------------|-------------------||
--------------------------|-------------------||
--0--0--0--0--0--0--0--0--|--0----------------||


The Strokes albums
2003 Room on Fire
2001 Is This It
Room on Fire tabs
01What Ever Happened? tabbass tab
02Reptilia tabbass tab
03Automatic Stop tabbass tab
0412:51 tabbass tab
05You Talk Way Too Much tabbass tab
06Between Love & Hate tabbass tab
07Meet Me in the Bathroom tabbass tab
08Under Control tabbass tab
09The Way It Is tabbass tab
10The End Has No End tabbass tab
11I Can't Win tabbass tab

 

1