Search tabs:
Browse artists: 0-9 | A | B | C | D | E | F | G | H | I | J | K | L | M | N | O | P | Q | R | S | T | U | V | W | X | Y | Z
/ The Strokes / Room on Fire (2003) / Under Control bass tab

riff one
G||---------------------------|--------------------------|
D||*--------------------------|--------------------------|
A||*--4--4--4--6--6--6--6--6--|--6--6--6--4--4--4--4--4--|
E||---------------------------|--------------------------|

--------------------------|---------------------------|
--------------------------|--------------------------*|
--8--8--8--9--9--9--9--9--|--8--9--8--6--6--6--6--6--*|
--------------------------|---------------------------|

--------------------------|--------------------------|
--------------------------|--------------------------|
--4--4--4--6--6--6--6--6--|--6--6--6--4--4--4--4--4--|
--------------------------|--------------------------|

--------------------------|--------------------------||
--------------------------|--------------------------||
--8--8--8--6--6--6--6--6--|--6--6--6--4--4--4--4--4--||
--------------------------|--------------------------||




 riff two - slightly staccato
||---------------------------|---------------------------|
||*--------------------------|--------------------------*|
||*--------------------------|--6--6--6--6--6--6--6--6--*|
||---4--4--4--4--4--4--4--4--|---------------------------|

last time
--------------------------|-------------------||
--------------------------|--6----------------||
--------------------------|-------------------||
--4--4--4--4--4--4--4--4/-|-------------------||




   riff one
G||---------------------------|--------------------------|
D||*--------------------------|--------------------------|
A||*--4--4--4--6--6--6--6--6--|--6--6--6--4--4--4--4--4--|
E||---------------------------|--------------------------|

--------------------------|---------------------------|
--------------------------|--------------------------*|
--8--8--8--9--9--9--9--9--|--8--9--8--6--6--6--6--6--*|
--------------------------|---------------------------|

--------------------------|--------------------------|
--------------------------|--------------------------|
--4--4--4--6--6--6--6--6--|--6--6--6--4--4--4--4--4--|
--------------------------|--------------------------|

--------------------------|--------------------------||
--------------------------|--------------------------||
--8--8--8--6--6--6--6--6--|--6--6--6--4--4--4--4--4--||
--------------------------|--------------------------||




  riff three
||---------------------------|--------------------------|
||*--------------------------|--------------------------|
||*--------------------------|--4--4--4--4--4--4--4--4--|
||---2--2--2--2--2--2--2--2--|--------------------------|

-----------------------------|---------------------------||
-----------------------------|--------------------------*||
------------------------1----|--4--4--4--4--4--4--4--4--*||
--2--2--2--2--2----4---------|---------------------------||




 riff two - slightly staccato
||---------------------------|---------------------------|
||*--------------------------|--------------------------*|
||*--------------------------|--6--6--6--6--6--6--6--6--*|
||---4--4--4--4--4--4--4--4--|---------------------------|

last time
--------------------------|-------------------||
--------------------------|--6----------------||
--------------------------|-------------------||
--4--4--4--4--4--4--4--4/-|-------------------||




   riff one - outro
G||---------------------------|--------------------------|
D||*--------------------------|--------------------------|
A||*--4--4--4--6--6--6--6--6--|--6--6--6--4--4--4--4--4--|
E||---------------------------|--------------------------|

--------------------------|---------------------------|
--------------------------|--------------------------*|
--8--8--8--9--9--9--9--9--|--8--9--8--6--6--6--6--6--*|
--------------------------|---------------------------|

--------------------------|--------------------------|
--------------------------|--------------------------|
--4--4--4--6--6--6--6--6--|--6--6--6--4--4--4--4--4--|
--------------------------|--------------------------|

--------------------------|--------------------------|
--------------------------|--------------------------|
--8--8--8--6--6--6--6--6--|--6--6--6--4--4--4--4--4--|
--------------------------|--------------------------|

--------------------|----------------------||
--------------------|----------------------||
--8------6----------|--9--8--6--4----------||
--------------------|----------------------||





pearl jam - rats


  intro
||--------------------------------------------------------------------|
||--------------5--5--5-5-------------------------5--5--5-5-----------|
||-7----------------------7---------7-7---------------------7---------|
||-----0----5h7-------------0-5h6h7------0----5h7-------------0-5h6h7-|

||-----------------------------------------------------------7--------|
||--------------5--5--5-5-------------------------5-----7/9-----------|
||-7----------------------7---------7-7-------------------------------|
||-----0----5h7-------------0-5h6h7------0----5h7---------------------|

||-----------------------------------------------------------7--------|
||--------------5--5--5-5-------------------------5-----7/9-----------|
||-7----------------------7---------7-7-------------------------------|
||-----0----5h7-------------0-5h6h7------0----5h7---------------------|

||-------------------7--------|
||--------------7/9-----------|
||-7--------------------------|
||-----0----------------------|


  verse
||--------------------------------------------------------------------|
||--------------5--5--5-5-------------------------5--5--5-5-----------|
||-7----------------------7---------7-7---------------------7---------|
||-----0----5h7-------------0-5h6h7------0----5h7-------------0-5h6h7-|

||-----------------------------------------------------------------|
||--------------5--5--5-5-------------------------5----------------|
||-7----------------------7---------7-7---------------------5------|
||-----0----5h7-------------0-5h6h7------0----5h7-------7----------|

||-------------------------------------------------------------------|
||--------------5--5--5-5------------------------5--5--5-5-----------|
||-7----------------------7---------7----------------------7---------|
||-----0----5h7-------------0-5h6h7-----0----5h7-------------0-5h6h7-|

||-----------------------------------------------7----------7--------|
||--------------5--5--5-5------------------------5-----7/9-----------|
||-7----------------------7---------7--------------------------------|
||-----0----5h7-------------0-5h6h7-----0----5h7---------------------|


  chorus
||---------------------------------------------------|
||---------------------------------------------------|
||-0--0--0--0-0--2--2--2--3----3--3---3--3-3-3--3--3-|
||---------------------------------------------------|

||--------------------------------------------------|
||--------------------------------------------------|
||-0--0--0--0-0--2--2--2--3-----3----5----7---------|
||--------------------------------------------------|



  verse
||--------------------------------------------------------------------|
||--------------5--5--5-5-------------------------5--5--5-5-----------|
||-7----------------------7---------7-7---------------------7---------|
||-----0----5h7-------------0-5h6h7------0----5h7-------------0-5h6h7-|

||-----------------------------------------------------------------|
||--------------5--5--5-5-------------------------5----------------|
||-7----------------------7---------7-7---------------------5------|
||-----0----5h7-------------0-5h6h7------0----5h7-------7----------|

||-------------------------------------------------------------------|
||--------------5--5--5-5------------------------5--5--5-5-----------|
||-7----------------------7---------7----------------------7---------|
||-----0----5h7-------------0-5h6h7-----0----5h7-------------0-5h6h7-|

||-----------------------------------------------7----------7--------|
||--------------5--5--5-5------------------------5-----7/9-----------|
||-7----------------------7---------7--------------------------------|
||-----0----5h7-------------0-5h6h7-----0----5h7---------------------|


  chorus
||---------------------------------------------------|
||---------------------------------------------------|
||-0--0--0--0-0--2--2--2--3----3--3---3--3-3-3--3--3-|
||---------------------------------------------------|

||---------------------------------------------------|
||---------------------------------------------------|
||-0--0--0--0-0--2--2--2--3----3--3------3-3-1--1--1-|
||------------------------------------3--------------|

||---------------------------------------------------|
||---------------------------------------------------|
||-0--0--0--0-0--2--2--2--3----3--3------------------|
||------------------------------------0-3-3-3--3--4--|

||------------------------------------------|
||------------------------------------------|
||-0--0--0--0-0-----------------3-----5-----|
||---------------2--2--2--3-----------------|


The Strokes albums
2003 Room on Fire
2001 Is This It
Room on Fire tabs
01What Ever Happened? tabbass tab
02Reptilia tabbass tab
03Automatic Stop tabbass tab
0412:51 tabbass tab
05You Talk Way Too Much tabbass tab
06Between Love & Hate tabbass tab
07Meet Me in the Bathroom tabbass tab
08Under Control tabbass tab
09The Way It Is tabbass tab
10The End Has No End tabbass tab
11I Can't Win tabbass tab

 

1