Search tabs:
Browse artists: 0-9 | A | B | C | D | E | F | G | H | I | J | K | L | M | N | O | P | Q | R | S | T | U | V | W | X | Y | Z
/ The Strokes / Room on Fire (2003) / What Ever Happened? bass tab

Band – The Strokes
Song – What Ever Happened?
Album – Room On Fire
Tabbed by underthebridge1992

Standard Tuning EADG

Intro riff

G|-4-4-4-4-4 (so many times)|
D|-------------------------------|
A|-------------------------------|
E|-------------------------------|

Verse

G|----------------------------|
D|------2(x16)---------------|
A|2(x16)-----4(x16)-2(x16)-|
E|-----------------------------|

Bridge/End

E|0-0-0-0-0-0-0-0-0-0-0-0-0|

G|------------------------------|
D|------------------------------|
A|-2(x4)------4(x4)-2(x4)----|
E|--------2(x4)-----------------|

1:26 to 1:36
G|---------------|
D|---------------|
A|2-2-2--------| x4
E|-------4-4-4-|

1:36 to 1:40
G|----------------|
D|----------------|
A|-4-4-4-7-7-7-| x2
E|----------------| then do the 1:26 to 136 again for 4

Back to intro riff

Back to verse

End

That’s about it. If you have any questions or comments e-mail me at under_the_bridge_1992@yahoo.com or visit  my band’s website www.the-lost.tk and sign the guestbook.


The Strokes albums
2003 Room on Fire
2001 Is This It
Room on Fire tabs
01What Ever Happened? tabbass tab
02Reptilia tabbass tab
03Automatic Stop tabbass tab
0412:51 tabbass tab
05You Talk Way Too Much tabbass tab
06Between Love & Hate tabbass tab
07Meet Me in the Bathroom tabbass tab
08Under Control tabbass tab
09The Way It Is tabbass tab
10The End Has No End tabbass tab
11I Can't Win tabbass tab

 

1