Search tabs:
Browse artists: 0-9 | A | B | C | D | E | F | G | H | I | J | K | L | M | N | O | P | Q | R | S | T | U | V | W | X | Y | Z
/ The Strokes / Room on Fire (2003) / You Talk Way Too Much bass tab

last two times let the notes ring                                    4x
G||-----------------------------------|----9---9---9---9---9---9---9---9--||
D||*----7---7---7---7---7---7---7---7-|----------------------------------*||
A||*----------------------------------|--7---7---7---7---7---7---7---7---*||
E||---5---5---5---5---5---5---5---5---|-----------------------------------||



4th time play this ending
----9---9---9---9---9---9---9----|-------------------|
---------------------------------|-------------------|
--7---7---7---7---7---7---7---7/-|-------------------|
---------------------------------|--0----------------|



----------------------------------|----------------------------------|
----------------------------------|----------------------------------|
----------------------------------|----------------------------------|
--0-0-0-0-0-0-0-0-7-7-7-7-7-7-7-7-|--0-0-0-0-0-0-0-0-5-5-5-5-5-5-5-5-|



----------------------------------|----------------------------------|
----------------------------------|----------------------------------|
----------------------------------|----------------------------------|
--2-2-2-2-2-2-2-2-7-7-7-7-7-7-7-7-|--5-5-5-5-5-5-5-5-7-7-7-7-7-7-7-7-|



|--------------------|--------------------||
|*--7----------------|-------------------*||
|*-------------------|--7----------------*||
|--------------------|--------------------||



------------------------------------||------------------------------------||
*----------------------------------*||*----------------------------------*||
*----------------------------------*||*--7-7-7-5-5-5---------------------*||
---0-0-0-0-0-0-0-0-5-5-5-5-5-5-5-5--||---------------7-7-5-5-5-3-3-3-0-0--||



-------------------||
-------------------||
-------------------||
--0----------------||


The Strokes albums
2003 Room on Fire
2001 Is This It
Room on Fire tabs
01What Ever Happened? tabbass tab
02Reptilia tabbass tab
03Automatic Stop tabbass tab
0412:51 tabbass tab
05You Talk Way Too Much tabbass tab
06Between Love & Hate tabbass tab
07Meet Me in the Bathroom tabbass tab
08Under Control tabbass tab
09The Way It Is tabbass tab
10The End Has No End tabbass tab
11I Can't Win tabbass tab

 

1