Search tabs:
Browse artists: 0-9 | A | B | C | D | E | F | G | H | I | J | K | L | M | N | O | P | Q | R | S | T | U | V | W | X | Y | Z
/ White Stripes / White Blood Cells (2001) / Fell in Love With a Girl bass tab

tab by Brian Ward
This is a great song i love it
I know there is no bass in this song but its just plan fun to play but if there was a bass this is what it would be.
Riff #1
G-----------------------------------------------------------------
D-----------------------------------------------------------------
A-----------------------------------------------------------------  x2
E-77777--55555--10-10-10-10-10--3333-----------------------------

Riff #2
G-----------------------------------------------------------------
D-----------------------------------------------------------------
A-----------------------------------------------------------------  x1
E-00000--55555--10-10-10-10-10--3333-----------------------------

Riff #3
G-----------------------------------------------------------------
D-----------------------------------------------------------------
A-----------------------------------------------------------------  x1
E-00000--55555--0-------------------------------------------------

Outro
G------------------------------------------------------------------
D------------------------------------------------------------------
A------------------------------------------------------------------  x1
E-00000--55555--0--7-----------------------------------------------


White Stripes albums
2005 Get Behind Me Satan
2003 Elephant
2001 White Blood Cells
2000 De Stijl
1999 The White Stripes
White Blood Cells tabs
01Dead Leaves and the Dirty Ground tabbass tab
02Hotel Yorba tabbass tab
03I'm Finding It Harder to Be a Gentleman tabbass tab
04Fell in Love With a Girl tabbass tab
05Expecting tabbass tab
06Little Room tabbass tab
07The Union Forever tabbass tab
08The Same Boy You've Always Known tabbass tab
09We're Going to Be Friends tabbass tab
10Offend in Every Way tabbass tab
11I Think I Smell a Rat tabbass tab
13I Can't Wait tabbass tab
14Now Mary tabbass tab
15I Can Learn tabbass tab
16This Protector tabbass tab

 

1