Search tabs:
Browse artists: 0-9 | A | B | C | D | E | F | G | H | I | J | K | L | M | N | O | P | Q | R | S | T | U | V | W | X | Y | Z
/ Boxcar Racer / Boxcar Racer (2002) / Elevator guitar tab

"Elevator" by Boxcar Racer

Great song with Mark from Blink 182 on vocals for part of the song. The trick is to get
timing right with the song while you play.

Tabbed by Gerard Daubar (gdaubar@hotmail.com)

Tuning: Eadgbe standard tuning


Played throughout the song (quickly)
e------------------------------------------
b------------------------------------------
g------------------------------------------
d---------5---4-----5-----5-----5---5------
a------------------------------------------
E----3-3----3---3-3---3-3---3-3---3--------

e------------------------------------------
b------------------------------------------
g------------------4-----------------------
d--------5---4-----------5-----5---5-------
a----3-3---3---3-3---3-3---3-3---3---------
E------------------------------------------

This is played over and over.


Boxcar Racer albums
2002 Boxcar Racer
Boxcar Racer tabs
01I Feel So tabbass tab
02All Systems Go tabbass tab
03Watch The World tabbass tab
04Tiny Voices tabbass tab
05Cat Like Thief tabbass tab
06And I tabbass tab
07Letters to God tabbass tab
08My First Punk Song tabbass tab
09Sorrow tabbass tab
10There Is tabbass tab
11The End With You tabbass tab
12Elevator tabbass tab
13Instrumental tabbass tab

 

1