Search tabs:
Browse artists: 0-9 | A | B | C | D | E | F | G | H | I | J | K | L | M | N | O | P | Q | R | S | T | U | V | W | X | Y | Z
/ Boxcar Racer / Boxcar Racer (2002) / I Feel So guitar tab

Boxcar Racer - I Feel So
ALBUM: Boxcar Racer
Tabbed by Tim Berg (guitari265)

Intro:
clean (acoustic, maybe?)
E ---------------------
B ---------------------
G --4-----5----4-----2-
D --5-----4----2-----4- x2
A ---------------------
E -3-3--2-2---0-0--2-2-

E ---
B ---
G ---
D -5-
A -5-
E -3-
with feedback (it's supposed to be NOISE!)

then, distortion:
E -----------------------------------------
B -----------------------------------------
G -------------------7-------------------4-
D ---5-5-5----5-5-5--7-x3 then last note-4-
A ---5-5-5----5-5-5--5-------------------2-
E -0-3-3-3--0-3-3-3------------------------
repeat this twice

Verse:

repeat clean part of intro 4x
on third time play palm muted distortion:
E ---------------------
B ---------------------
G ---------------------
D -55--44----22--44---- x2
A -55--44----22--44----
E -33--22----00--22----

Chorus:

E -----------------------------------
B -----------------------------------
G -9999999999999999------------------
D -9999999999999999-9999999999999999-
A -7777777777777777-6666666666666666-
E -0000000000000000------------------


E -----------------------------------
B -----------------------------------
G -6666666666666666------------------
D -6666666666666666-9999999999999999-
A -4444444444444444-6666666666666666-
E -----------------------------------
whole thing repeated

Bridge:
feedback one, other plays palm muted:
E ------------------------------------
B ------------------------------------
G -7777------7777------7777------7777-
D -7777------7777------7777------7777-
A -5555------5555------5555------5555-
E ------------------------------------

E ---------------------
B ---------------------
G -------------------7- x4
D ---5-5-5----5-5-5--7-
A ---5-5-5----5-5-5--5- last note play open
E -0-3-3-3--0-3-3-3----

E -----------------------------------
B -----------------------------------
G -4444444444444444-4444444444444----
D -xxxxxxxxxxxxxxxx-xxxxxxxxxxxxx----
A -2222222222222222-2222222222222----
E -----------------------------------

thats it!
contacts...
email: hands0nthebible@yahoo.com
website: http://www.bluhd.greatnow.com


Boxcar Racer albums
2002 Boxcar Racer
Boxcar Racer tabs
01I Feel So tabbass tab
02All Systems Go tabbass tab
03Watch The World tabbass tab
04Tiny Voices tabbass tab
05Cat Like Thief tabbass tab
06And I tabbass tab
07Letters to God tabbass tab
08My First Punk Song tabbass tab
09Sorrow tabbass tab
10There Is tabbass tab
11The End With You tabbass tab
12Elevator tabbass tab
13Instrumental tabbass tab

 

1