Search tabs:
Browse artists: 0-9 | A | B | C | D | E | F | G | H | I | J | K | L | M | N | O | P | Q | R | S | T | U | V | W | X | Y | Z
/ Boxcar Racer / Boxcar Racer (2002) / The End With You guitar tab

-----------------------------------------------------------------------------
	                The End With You
-----------------------------------------------------------------------------
By: Mikey Mikey D

I think this is one of the best songs on the cd. I'm pretty much 100% correct.
It took me alittle bit to get it down. Enjoy.

Intro
e|---------------------------------------------------------------------------|
B|---------------------------------------------------------------------------|
G|6666666666666666666666666666666666666666-----------------------------------|
D|xxxxxxxxxxxxxxxxxxxxxxxxxxxxxxxxxxxxxxxx-----------------------------------|
A|4444444444444444444444444444444444444444-----------------------------------|
E|---------------------------------------------------------------------------|

Pre Verse
e|---------------------------------------------------------------------------|
B|---------------------------------------------------------------------------|
G|----------------6-----------------6----------------------------------------|
D|444-6/777777-66-6-444-6/777777-66-6----------------------------------------|
A|444-6/777777-66-4-444-6/777777-66-4----------------------------------------|
E|222-4/555555-44---222-4/555555-44------------------------------------------|

Verse
e|---------------------------------------------------------------------------|
B|---------------------------------------------------------------------------|
G|---------------------------6666-----------------------------6666-----------|
D|77777777--------------4444-6666-77777777---------------4444-6666-----------|
A|77777777--------------4444-4444-77777777---------------4444-4444-----------|
E|55555555(little pause)2222------55555555(little pause)-2222----------------|
pm..................................................................

Pre Chorus
e|---------------------------------------------------------------------------|
B|---------------------------------------------------------------------------|
G|66666666666666666666-------------------------------------------------------|
D|xxxxxxxxxxxxxxxxxxxx-------------------------------------------------------|
A|44444444444444444444-------------------------------------------------------|
E|---------------------------------------------------------------------------|

Chorus
e|---------------------------------------------------------------------------|
B|---------------------------------------------------------------------------|
G|-------------------------------77--------------------------------77--------|
D|7777777777777777-77777777-4444-xx-7777777777777777-77777777-4444-xx--------|
A|7777777777777777-77777777-4444-55-7777777777777777-77777777-4444-55--------|
E|5555555555555555-44444444-2222----5555555555555555-44444444-2222-----------|

Interlude
e|---------------------------------------------------------------------------|
B|---------------------------------------------------------------------------|
G|--------666/7/6~----------666/7/6~---------666/7/6~------------------------|
D|444-67~-xxx/x/x~--444-67~-xxx/x/x~-444-67~-xxx/x/x~------------------------|
A|xxx-xx~-444/5/4~--xxx-xx~-444/5/4~-xxx-xx~-444/5/4~------------------------|
E|222-45~-----------222-45~----------222-45~---------------------------------|

Order:
Intro
Preverse (x2)
Verse (x4)
Pre Chorus
Chorus
Pre Verse
Verse(x4)
Pre Verse
Chours (x2)
Interlude (x3)
Chours(x2)
Intro


Boxcar Racer albums
2002 Boxcar Racer
Boxcar Racer tabs
01I Feel So tabbass tab
02All Systems Go tabbass tab
03Watch The World tabbass tab
04Tiny Voices tabbass tab
05Cat Like Thief tabbass tab
06And I tabbass tab
07Letters to God tabbass tab
08My First Punk Song tabbass tab
09Sorrow tabbass tab
10There Is tabbass tab
11The End With You tabbass tab
12Elevator tabbass tab
13Instrumental tabbass tab

 

1