Search tabs:
Browse artists: 0-9 | A | B | C | D | E | F | G | H | I | J | K | L | M | N | O | P | Q | R | S | T | U | V | W | X | Y | Z
/ Bryan Adams / Reckless (1984) / Kids Wanna Rock guitar tab

Song: Kids Wanna Rock intro/riff
Artist: Bryan Adams
Album: So Far So Good

I noticed that there was no tab for this anywhere, which is rather unbelievable.

Intro (main riff)

E -------0---------------------------------------------------------------------------------------------------
B -------0----3----------------------------------------------------------------------------------------------
G ------------------4---0-----2------------------------------------------------------------------------------
D ----------------------0-----2-----2------2--------2------2-------------------------------------------------
A ----------------------------------2------2--------2------2-------------------------------------------------
E ----------------------------------0------0--------0------0-------------------------------------------------

This part is in it too.

E -----------------------------------------------------------------------------------------------------------
B -----------------------------------------------------------------------------------------------------------
G ------------------------------2----------------------------------------------------------------------------
D ---------2-------------2------2------------------2---------------------------------------------------------
A ---------2-------------2------0------------------2---------------------------------------------------------
E ---------0------3------0-----------------3-------0---------------------------------------------------------

Hope this helps.


E-mail - bryanadamsfans@yahoo.co.uk

PLEASE RATE THIS TAB AND DONT REMOVE IT BECAUSE THERE IS NO OTHER KIDS WANNA ROCK TAB ON THE WWW


Bryan Adams albums
2004 Room Service
1998 On a Day Like Today
1997 MTV Unplugged
1996 18 'til I Die
1991 Waking up the Neighbours
1987 Into the Fire
1984 Reckless
1983 Cuts Like a Knife
1981 You Want It, You Got It
1980 Bryan Adams
Reckless tabs
01One Night Love Affair tabbass tab
03Run to You tabbass tab
04Heaven tabbass tab
05Somebody tabbass tab
06Summer of '69 tabbass tab
07Kids Wanna Rock tabbass tab
08It's Only Love tabbass tab

 

1