Search tabs:
Browse artists: 0-9 | A | B | C | D | E | F | G | H | I | J | K | L | M | N | O | P | Q | R | S | T | U | V | W | X | Y | Z
/ Coheed & Cambria / Good Apollo I'm Burning Star IV, Vol. 1: From Fear Through the Eyes of Madness (2005) / The Suffering guitar tab

Title: The Suffering
Artist: Coheed & Cambria
Album: Good Apollo I'm Burning Star IV, Volume 1: From Fear Through
 The Eyes of Madness

Copyright  Columbia Records 2005
Version 1.0 - 08/12/2005 - Original tab

Tabbed by: Chris Frazier (cdf0103@mail.ecu.edu)

So this is the fourth tab of my Good Apollo series, it's for the
track "The Suffering" which is one of my favorite Coheed tracks.
It sounds a lot like Three Evils, Blood Red Summer, and Devil In
Jersey City. If anybody has any question, comments, or corrections
PLEASE send them to me at cdf0103@mail.ecu.edu and you'll be sure
to get FULL CREDIT for anything you submit to me.
Enjoy!

.  - palm mute
/  - slide up and down to
b  - Bend
() - Natural harmonics
*  - Pinch harmonics
h  - Hammer
p  - Pull off
"  - Tremolo Picking
x  - Mute
... - Keep play chord at steady pace

Guitar I; Electric, Rhythm (Eb Ab Db Gb Bb Eb)(Left Speaker)
Guitar II; Electric, Lead (Eb Ab Db Gb Bb Eb)(Right Speaker)

Phase I (Guitar II)
E|-------------------------------------------------------------------------------------------------------------||
B|-------------------------------------------------------------------------------------------------------------||
G|-------------------------------------------------------------------------------------------------------------||
D|------5-2--0-0-0--5-2--7--9/-------------------------------------------------10-10----10-10--10-10--10-10-12-||
A|-10/-------------------5--7/--2-2--------------5-7--7-7-7-7-7-5--------------8--8-----7--8---7--8---7--8--10-||
E|-8-/--------------------------0-0--0-0-0--0-0--3-5--5-5-5-5-5-3---0-3-5-3--0---------------------------------||
        . .  . . .  . .         . .  . . .  . .       . . . .       . . . .  .          .  .          .  .

Phase I Pt. 1 (Guitar I)
E|------------------------------------------------------------------------------------------------------------||
B|------------------------------------------------------------------------------------------------------------||
G|-----------------------5--4/-------------------7-9--------9-7/----------7-----10/12---12/14---14/16/14--12/-||
D|------5-2--0-0-0--5-2--5--5/-------------------x-x--------x-x-------------7/--x--x----x--x----x--x--x---x---||
A|------------------------------2-2--------------5-7--------7-5/----------------8-/10---10/12---12/14/12--10/-||
E|------------------------------0-0--0-0-0--0-0-------0-0-0-------0-3-5-3-------------0-------0---------------||
        . .  . . .  .           . .  . . .  . .       . . .       . . . .             .       .

Phase I Pt. 2 (Guitar I)
E|---------------------------------------------------------------------------------------------------------------||
B|---------------------------------------------------------------------------------------------------------------||
G|-----------------------5--4/-------------------7*-9--------9*-7/----------7*-----10/12---12/14---14/16/14--12/-||
D|------5-2--0-0-0--5-2--5--5/-------------------------------------------------7/---x--x----x--x----x--x--x---x--||
A|------------------------------2-2------------------------------------------------8-/10---10/12---12/14/12--10/-||
E|------------------------------0-0--0-0-0--0-0-------0-0-0--------0-3-5-3---------------------------------------||
        . .  . . .  .           . .  . . .  . .       . . .        . . . .

Phase II (Guitar I)
E|------------------------------------------------------------------------------------------------------------------------||
B|------------------------------------------------------------------------------------------------------------------------||
G|------------------------------------------------------------------------------------------------------------------------||
D|--------------------------------------------------------------------------------------5--5-...-5------------------------||
A|-12/-----------------------------------3--3-3-3--3-3-3--3-3-5--7-7-...--7-5--5-...--5-3--3-...-3-3--3-...-3/--3-...-3---||
E|-10/-----------------------------------1--1-1-1--1-1-1--1-1-3--5-5-...--5-3--3-...--3------------1--1-...-1/--1-...-1/12||
                                            . . .  . . .  . .      . ...       . ...       . ...      . ...       ...

Phase II Pt. 1 (Guitar II)
E|---------------------------||---8---8------------------8---8--------------------------------------------------------||------------||
B|---------------------------||-8---8---8-6-5b--7-5b---8---8---8------------------------------------------------------||------------||
G|---------------------------||-------------------------------------5-7-5/-----5-7-5h7p5----5-7-5/-------------5-5-5/-||------------||
D|---------------------------||-----------------------------------5---------5-------------5--------7-7-7-7-7-7--------||------------||
A|-12/---x-x-x--x-x-x--x-x-x-||---------------------------------------------------------------------------------------||-3-...-3----||
E|-10/---x-x-x--x-x-x--x-x-x-||---------------------------------------------------------------------------------------||-1-...-1/12-||
                                                                .         .             .        . . . . . . . .

Phase II Pt. 2 (Guitar II)
E|---8---8------------------8---8-------------------------------------------------10-10b-8-8-||
B|-8---8---8-6-5b--7-5b---8---8---8----------------------------------------------------------||
G|-------------------------------------5-7-5/-----5-7-5h7p5----5-7-5/------------------------||
D|-----------------------------------5---------5-------------5--------7-7-7-7-7-7------------||
A|-------------------------------------------------------------------------------------------||
E|-------------------------------------------------------------------------------------------||
                                     .         .             .        . . . . . .

Phase III (Guitar I)
E|-------------------------||
B|-------------------------||
G|-------------------------||
D|-5-...-------------------||
A|-3-...-5-...-7-...-3-...-||
E|-------3-...-5-...-1-...-||

Phase III Pt. 1 (Guitar II)
E|-----------------------------------------------------------------------------------||
B|-----------------------------------------------------------------------------------||
G|-----12-10-9-10-9------12-10-9-10-9---9-...-9/7-...-7/9-...-9/10-------------------||
D|-10----------------10-----------------x-...-x/x-...-x/x-...-x/x--------------------||
A|--------------------------------------7-...-7/5-...-5/7-...-7/8----2h3p2---2h3---5-||
E|-------------------------------------------------------------------------3-----3---||

Phase III Pt. 2 (Guitar II)
E|----------------------------------------------------------------------------------------||
B|----------------------------------------------------------------------------------------||
G|-----12-10-9-10-9---------9-10-12-12b-10---9-...-9/7-...-7/9-...-9/10-------------------||
D|-10----------------10--12------------------x-...-x/x-...-x/x-...-x/x--------------------||
A|-------------------------------------------7-...-7/5-...-5/7-...-7/8----2h3p2---2h3---5-||
E|------------------------------------------------------------------------------3-----3---||

Phase IV (Guitar I)
E|---------------------------------------------------------||
B|---------------------------------------------------------||
G|---------------------------------------------------------||
D|-5-...---------------------------------------------------||
A|-3-...-5-...-7-...-3-...-5-...--8-7---8-7---10-------10/-||
E|-------3-...-5-...-1-...-3-...------8-----8-8--------8-/-||

Phase IV (Guitar II)
E|-------------------------------------------------------------------------------------------------------------------------------||
B|-------------------------------------------------------------------------------------------------------------------------------||
G|-----12-10-9-10-9------12-10-9-10-9---9-...-9/7-...-7/9-...-9/10---------------------------------------------------------------||
D|-10----------------10-----------------x-...-x/x-...-x/x-...-x/x----------------------------------------------------------------||
A|--------------------------------------7-...-7/5-...-5/7-...-7/8----2h3p2---2h3---5------2-------------8-7---8-7---10-------10/-||
E|-------------------------------------------------------------------------3-----3---------------3----------8-----8-8--------8---||


Coheed & Cambria albums
2005 Good Apollo I'm Burning Star IV, Vol. 1: From Fear Through the Eyes of Madness
2003 In Keeping Secrets of Silent Earth: 3
2002 The Second Stage Turbine Blade
Good Apollo I'm Burning Star IV, Vol. 1: From Fear Through the Eyes of Madness tabs
01Keeping the Blade tabbass tab
02Always & Never tabbass tab
03Welcome Home tabbass tab
05Crossing the Frame tabbass tab
06Apollo I: The Writing Writer tabbass tab
07Once Upon Your Dead Body tabbass tab
08Wake Up tabbass tab
09The Suffering tabbass tab
12The Willing Well: I - Fuel for the Feeding End tabbass tab
13The Willing Well: II - From Fear Through the Eyes of Madness tabbass tab
14The Willing Well: III - Apollo II: The Telling Truth tabbass tab
15The Willing Well: IV - The Final Cut tabbass tab

 

1