Search tabs:
Browse artists: 0-9 | A | B | C | D | E | F | G | H | I | J | K | L | M | N | O | P | Q | R | S | T | U | V | W | X | Y | Z
/ Coldplay / A Rush of Blood to the Head (2002) / In My Place guitar tab

ColdPlay  In My Place
Tabbed By: SummerRomance!

Main riff:
e|--12---12--------9-----9---12---12--------9----9-----|
B|--------------12---12------------------12---12-------|
G|-----9----9-------------------9----9-----------------| 3xs
D|-----------------------------------------------------|
A|-----------------------------------------------------|
E|-----------------------------------------------------|

(cont.)                                                      end
e|--12---12--------9-----9---12---12--------------9----9-----|
B|--------------12---12-----------------12/14--12---12--10~~-|
G|-----9----9-------------------9----9-----------------------|
D|-----------------------------------------------------------|
A|-----------------------------------------------------------|
E|-----------------------------------------------------------|

E------------
B------------
G------------
D--------7---(Riff 3)
A--7-h-9------
E------------

E-12------------
B--------7---9--
G-----9---------
D---------------(Riff 4)
A---------------
E---------------


Verse 1

A     A/G#         C#m
In my place, in my place,
     E                     A
Were lines that I couldn't change,
      F#m     C#m   E
I was lost, oh yeah. 

A     A/G#         C#m
I was lost, I was lost,
        E                      A
Crossed lines I shouldn't have crossed,
      F#m     C#m   E
I was lost, oh yeah. 

----------------------------------------
Chorus 1

D(Riff 3)   A           E        D(Riff 3)
Yeah, how long must you wait for him?
          A             E        D
Yeah, how long must you pay for him?
          A             E        D(Riff 3)    
Yeah, how long must you wait for him? 
       E(Riff 4)
Oh for him. 

e|--12---12--------9-----9---12---12--------9----9-----|
B|--------------12---12------------------12---12-------|
G|-----9----9-------------------9----9-----------------| 1xs
D|-----------------------------------------------------|
A|-----------------------------------------------------|
E|-----------------------------------------------------|

(cont.)                                                      end
e|--12---12--------9-----9---12---12--------------9----9-----|
B|--------------12---12-----------------12/14---12---1210~~-|
G|-----9----9-------------------9----9-----------------------|
D|-----------------------------------------------------------|
A|-----------------------------------------------------------|
E|-----------------------------------------------------------|



----------------------------------------
Verse 2

A     A/G#          C#m
I was scared, I was scared,
E                 A
Tired and underprepared,
      F#m      C#m   E
But I wait for it. 


E--5------5--4-----4--4-----4--4-----4-
B--------------------------------------
G-----6--------4--------6--------4-----
D-------------------------------------- Play this for the Next Verse
A--------------------------------------
E--------------------------------------

If you go, if you go,
                    
Leaving me here on my own,

Well I wait for you. 

----------------------------------------
Chorus 2

D(Riff 3) A             E        D(Riff 3)
Yeah, how long must you wait for him?
          A             E        D(Riff 3)
Yeah, how long must you pay for him?
          A             E        D(Riff 3)    
Yeah, how long must you wait for him? 
       E(Riff 4)
Oh for him. 




Solo: 

E---12---12--------9----9--
B---------------12---12----
G------9----9--------------
D--------------------------x3  (Riff 1)
A--------------------------
E--------------------------

E---12---12--------------9----10-----
B-----------12/14-----12---12--------
G------9-----------------------------
D------------------------------------ (Riff 2)
A------------------------------------
E------------------------------------

E---12---12--------9----9--
B---------------12---12----
G------9----9--------------
D--------------------------
A--------------------------
E--------------------------

E---12---12--------------9----10-----
B-----------12/14-----12---12--------
G------9-----------------------------
D------------------------------------ 
A------------------------------------
E------------------------------------

E---12---12--------9----9--
B---------------12---12----
G------9----9--------------
D--------------------------
A--------------------------
E--------------------------

E---12---12--------------9----10-----
B-----------12/14-----12---12----10--
G------9-----------------------------
D------------------------------------ (Riff 2)
A------------------------------------
E------------------------------------



----------------------------------------
Solo/Bridge

        
Sing it Please, please, please,
     
Come on and sing to me,

To me, me. 

     
Come on and sing it out, now, now.
     
Come on and sing it out, to me, me.

Come back and sing it. 

-----------------------------------------

In my place, in my place,
     
Were lines that I couldn't change,
      
I was lost, oh yeah. 
  
Oh yeah.


Coldplay albums
2005 X&Y
2002 A Rush of Blood to the Head
2001 Don't Panic
2000 Acoustic CD
2000 Parachutes
A Rush of Blood to the Head tabs
01Politik tabbass tab
02In My Place tabbass tab
03God Put a Smile Upon Your Face tabbass tab
04The Scientist tabbass tab
05Clocks tabbass tab
06Daylight tabbass tab
07Green Eyes tabbass tab
08Warning Sign tabbass tab
09A Whisper tabbass tab
10A Rush of Blood to the Head tabbass tab
11Amsterdam tabbass tab

 

1