Search tabs:
Browse artists: 0-9 | A | B | C | D | E | F | G | H | I | J | K | L | M | N | O | P | Q | R | S | T | U | V | W | X | Y | Z
/ Coldplay / Acoustic CD (2000) / Yellow guitar tab

-------------------------------------------------------------------------------			                                  "Yellow"
                                 COLDPLAY
                               By:Taxi-Gurl 
-------------------------------------------------------------------------------

This is an acoustic version.....

Intro:

Riff 1:
e|-------------------------------------------------------------------------------|
B|-------------------------------------------------------------------------------|
G|--8----------------------------------------------------------------------------|
D|--9----------------------------------------------------------------------------|
A|--9--(This chord is played a number of times until the next riff starts)-------|
E|--7----------------------------------------------------------------------------|

Riff 2: (You work out the number of strums on each chord)
e|------------0-----------------------------------------------------------------|
B|------------0-----------------------------------------------------------------|
G|--8----3----2----8------------------------------------------------------------|
D|--9----4----3----9------------------------------------------------------------|
A|--9----4----1----9------------------------------------------------------------|
E|--7----2----0----7------------------------------------------------------------|

Verses:
e|------------0------------------------------------------------------------------|
B|------------0------------------------------------------------------------------|
G|--8----3----2----8---------------8---8--9--8------------------------------------|
D|--9----4----3----9----(Play 3x)--9---9--9--9------------------------------------|
A|--9----4----1----9---------------9---9--9--9------------------------------------|
E|--7----2----0----7---------------7---7--7--7------------------------------------|

Chrous:
e|--0----4----2-------------------------------------------------------------------|
B|--0----4----2-------------------------------------------------------------------|
G|--2----4----3----------------------8--------------------------------------------|
D|--3----6----4---(Play 3x)-Then..---9--------------------------------------------|
A|--1----6----4----------------------7--------------------------------------------|
E|--0----4----2-------------------------------------------------------------------|

Back to Riff 2, and then Verses, and then Chorus, then Riff 2...

And the last verse, is like this:

Outro:
e|-----------0------------------------------------------------------------------|
B|-----------0------------------------------------------------------------------|
G|-8----2----1------------------------------------------------------------------|
D|-9----4----2---(Strum out last chord slowly-----------------------------------|
A|-9----x----2------------------------------------------------------------------|
E|-7----2----0------------------------------------------------------------------|


There... an acoustic version of yellow... enjoy!

Taxi-Gurl (blinkin_park@hotmail.com)


Coldplay albums
2005 X&Y
2002 A Rush of Blood to the Head
2001 Don't Panic
2000 Acoustic CD
2000 Parachutes
Acoustic CD tabs
01Sparks tabbass tab
02Careful Where You Stand tabbass tab
03Yellow tabbass tab
04See You Soon tabbass tab

 

1