Search tabs:
Browse artists: 0-9 | A | B | C | D | E | F | G | H | I | J | K | L | M | N | O | P | Q | R | S | T | U | V | W | X | Y | Z
/ Coldplay / Parachutes (2000) / Shiver guitar tab

Artist: Coldplay
Album: Parachutes (2000)
Track: 2
Song: Shiver
Instrument: Guitar

Versions: 2

===================================================
==================== VERSION 1 ====================
===================================================

SHIVER

G1 = electric lead guitar *capo 9th fret* (notated relative to capo)
G2 = acoustic rhythm guitar *capo 9th fret* (notated relative to capo)

INTRO 

G1
e---0-2-3-(x3)---0-2-3--- 

G2
e---3------------2-------
B---3------------3-------
G---0------------2-------
D---0------------0-------
A---x--------------------
E---3--------------------

G1
e-------------------------------------------------------------------
B-------------------------------------------------------------------
G-------------------------------------------------------------------
D---2/4-4-4-4/2-2-2-2/5-5-5-5/2-2-2-2/4-4-4-4/2-2-2----------------- (x2)
A---------------------------------------------------2-2-2-2/5-5-5---
E-------------------------------------------------------------------

G1
e--------------------------------------------------
B--------------------------------------------------
G-----------------------------5-5/7/4--------------
D---2/4-4-4-4/2-2-2-2/5-5-5-5-----------2-2/4-0----
A--------------------------------------------------
E--------------------------------------------------

VERSE

"So I look in your direction..."
G1
e-----------------5---3----2-----0-----    ]
B---0------------0-----0----0-----0----    ]
G---4-----------2---2---2----2-2---0---    ]
D---5----------------------------------    ]
A--------------------------------------    ]
E--------------------------------------    ]
                                          (x2)
G2                                         ]
e---3-----------2----------------------    ]
B---3-----------3----------------------    ]
G---0-----------2----------------------    ]
D---0-----------0----------------------    ]
A---x----------------------------------    ]
E---3----------------------------------    ]

"From the moment I wake..."
G1
e-------------------------------------------------------------------------------------
B-------------------------------------------------------------------------------------
G-------------------------------------------------------------------------------------
D-----5-5-5-5-5-5-4-4-4-2-2------5-5-5-5-5-5-4-4-4-2-2------5-5-5-5-5-5-4-4-4-2-2-----
A---2--------------------------2--------------------------4---------------------------
E-------------------------------------------------------------------------------------

G1
e-------------------------------------------------------------------------------------
B-------------------------------------------------------------------------------------
G-----------------------2-2-----------------------------------------------------------
D-----5-5-5-5-5-5-4-4-4-----------5-5-5-5-5-5-4-4-4-2-2------5-5-5-5-5-5-4-4-4-2-2----
A---4---------------------------2--------------------------2--------------------------
E-------------------------------------------------------------------------------------

"Just to see if you care.."
G1
e--------------------------------------------------
B--------------------------------------------------
G----------------------------2-2-2-2-2-2/5-5-5-5---
D---0-0-0-0-0-0-0-0-0-0-0-0--0-0-0-0-0-0-0-0-0-0---
A---5-5-5-5-5-5/9-9-9-9-9-9------------------------
E--------------------------------------------------

"Did you want me to change..."
G1
e------------------------------
B------------------------------
G------------------------------
D-----0---4p0------0---4p0----- (x3) 
A---2---2-----2--1---1----1----
E------------------------------

e--------------------------------------------------------------------------
B--------------------------------------------------------------------------
G--------------------------------------------------------------------------
D----0---4p0------0---4p0------0---4p0-----0---4p0-------0---4p0------4~---
A--0---0-----0--------------------------------------------------------5~---
E---------------3---3-----3--2---2-------2---2------2--2---2----------3~---

CHORUS

"Don't you shiver..."
G1
e-------------------------------------------------------------------
B-------------------------------------------------------------------
G-------------------------------------------------------------------
D---2/4-4-4-4/2-2-2-2/5-5-5-5/2-2-2-2/4-4-4-4/2-2-2----------------- (x2)
A---------------------------------------------------2-2-2-2/5-5-5---
E-------------------------------------------------------------------

G1
e--------------------------------------------------
B--------------------------------------------------
G-----------------------------5-5/7/4--------------
D---2/4-4-4-4/2-2-2-2/5-5-5-5-----------2-2/4-0----
A--------------------------------------------------
E--------------------------------------------------

REPEAT VERSE and CHORUS

REPEAT INTRO "yeah I'll always be waiting for you..."

REPEAT CHORUS

ENDS with:
"So I look in your direction..."
G1
e----------------------
B---0--3--0--3--0--3---
G---4--4--4--4--4--4---
D---5--5--5--5--5--5---
A----------------------
E----------------------

Thanks to: Alex Robertson, (mog@thefreeinternet.co.uk)
Get more pukka tab like this at the regularly updated, vast guitar tablature archive and request
site known as SCARLET MONKEY'S GUITAR TAB HOARD: 
http://www.thefreeinternet.co.uk/mog2/guitar_tab.htm



===================================================
==================== VERSION 2 ====================
===================================================

artist: Coldplay
song: Shiver
album: Parachutes (2000)
tabbed by: Paolo Tami   paolotami@hotmail.com


[AG]= acoustic guitar            [EG]= electric guitar                   
/ = slide
(enlarge this page for a better view!!!)

Intro (0:00):

[AG]
e|-7-7-7-7-7-7--7-7-
b|-9-9-9-9-9-9--7-7-
g|-9-9-9-9-9-9--8-8-
d|-9-9-9-9-9-9--9-9-
a|-7-7-7-7-7-7--9-9-
e|-7-7-7-7-7-7--7-7-

[EG]
|...12|-9-11-12 X 7 times, then -9-12-
|...12|----------                        -------
|...13|----------                        -------
|...14|----------                        -------
|...14|----------                        -------
|...12|----------                        -------

chorus (0:12)

[AG]
e|-----------------------------------------------------------------------    
                     ------------
b|-----------------------------------------------------------------------    
                     ------------
g|-8-8--8-8-8--8-8--2-2--2-2-2--2-2--6-6--6-6-6--6-6--11-111-11-             
            -6-------1-
d|-9-9--9-9-9--9-9--4-4--4-4-4--4-4--7-7--7-7-7--7-7--22-222-22- x 3 times, 
then -7-------2-
a|-9-9--9-9-9--9-9--4-4--4-4-4--4-4--7-7--7-7-7--7-7--22-222-22-             
            -7-------2-
e|-7-7--7-7-7--7-7--2-2--2-2-2--2-2--5-5--5-5-5--5-5--00-000-00-             
            -5-------0-


[EG] (main riff)
e|---------------------------------------------------------
b|-2/4-4-4-4\2-2-2/5-5-5-5\2-2-2/4-4-4-4\2-2----------
g|-------------------------------------------1-1/4-4-4-4-- x2 times, then
d|---------------------------------------------------------
a|---------------------------------------------------------
e|---------------------------------------------------------

e|--------------------------------5-5-5-5-5/7-7-7-4-4-4------------
b|-2/4-4-4-4\2-2-2/5-5-5-5-5-5------------------------------------
g|----------------------------------------------------------6/8/4-..--
d|--------------------------------------------------------------------
a|--------------------------------------------------------------------
e|--------------------------------------------------------------------

Verse (0:37):

[AG]
e|-7-7-7-7-7-7-7-7--7-7-7-7-7-7-7-7-
b|-9-9-9-9-9-9-9-9--7-7-7-7-7-7-7-7-
g|-9-9-9-9-9-9-9-9--8-8-8-8-8-8-8-8-
d|-9-9-9-9-9-9-9-9--9-9-9-9-9-9-9-9-
a|-7-7-7-7-7-7-7-7--9-9-9-9-9-9-9-9-
e|-7-7-7-7-7-7-7-7--7-7-7-7-7-7-7-7-

So I look in your direction but you pay me no attention do you?
I know you donít listen to me Ďcos you say you see straight through me donít 
you?

[EG]
e|-------------14--12----11--------9--------|-------------14--12----11--------9---------|
b|-----------12--12--12----12--12--12-----|-----------12--12--12----12--12--12-------|
g|---------11----------11-----11-------11--|---------11----------11-----11-------11-13-|
d|--------------------------------------------|----------------------------------------------|
a|--------------------------------------------|----------------------------------------------|
e|--------------------------------------------|----------------------------------------------|

Bridge (1:02)

[AG]
e|------------------------------------------------------------------------------------
b|----------------------------------------------------------------------------10-10-
g|----9-9-9-9-9-9-9-9--3-3-3-3-3-3-3-3--9-9-9-9-9-9-9-9--8-8-8-8-8-8-8-8---
d|----9-9-9-9-9-9-9-9--4-4-4-4-2-2-2-2--9-9-9-9-9-9-9-9--9-9-9-9-7-7-7-7---
a|----7-7-7-7-7-7-7-7--4-4-4-4-4-4-4-4--7-7-7-7-7-7-7-7--9-9-9-9-9-9-9-9---
e|---------------------------------------------------------------------

But on and on from the moment I wake to the moment I sleep,
Iíll be there by your side just you try and stop me
Iíll be waiting in line just to see if you care.

[EG]
e|------------------------------                     
----------------------------              -----------------------------
b|---5-5-5-5-5-5/4-4-4/2-2-- x3 times, than --5-5-5-5-5-5/4-4-4/7-7- so, 
again ---5-5-5-5-5-5/4-4-4/2-2-- x2 times, so
g|-----------------------------                       
---------------------------               -----------------------------
d|-----------------------------                       
---------------------------               -----------------------------
a|-----------------------------                       
---------------------------               -----------------------------
e|-----------------------------                       
---------------------------               -----------------------------

e|-------------------------------------------
b|-----0--0----0--0-----0--0------0---0---
g|---4--4--4-8--8--8-11-11-11-14-14-14-
d|-------------------------------------------
a|-------------------------------------------
e|-------------------------------------------

Pre-chorus (1:27):

[AG]
e|------------------------------------------------------------------------
b|-------8-8--4-4--8-8-------8-8--4-4----------------------------------
g|-4-4--8-8--4-4--8-8--4-4--8-8--4-4--6-6---4-4--8-8--1-1-1-1-1-1-
d|-6-6--8-8--4-4--8-8--6-6--8-8--4-4--7-7---6-6--8-8--2-2-2-2-2-2-
a|-6-6--6-6--2-2--6-6--6-6--6-6--2-2--7-7---6-6--6-6--2-2-2-2-2-2-
e|-4-4-------------------4-4--------------5-5--4-4--------0-0-0-0-0-0-

ooh...Did you want me to change? Well Iíll change for good.
And I want you to know that youíll always get your way.
I wanted to say...

[EG] follows the same chords of [AG]

Chorus (1:48):

...donít you shiver? shiver, shiver, oooh,  Iíll always be waiting for you.

Verse 2 (2:13):

So you know how much I need you but you never even see me do you?
And is this my final chance of getting you?

Bridge (2:38)

But on and on from the moment I wake to the moment I sleep,
Iíll be there by your side just you try and stop me
Iíll be waiting in line just to see if you care.

Pre-chorus (3:02)

ooh... Did you want me to change? Well Iíll change for good.
And I want you to know that youíll always get your way.
I wanted to say...

Chorus (3:24):

...donít you shiver? donít you shiver? shiver, oooh,  Iíll always be waiting 
for you.

Second Bridge (3:48)

[AG]
e|-7-7-7-7-7-7-7-7-|          -7-7-7-7--7-7--2-2-                     
-7-7-7-7-7-7-7-7-
b|-9-9-9-9-9-9-9-9-|          -9-9-9-9--7-7--2-2-                     
-9-9-9-9-9-9-9-9-
g|-9-9-9-9-9-9-9-9-| ,then  -9-9-9-9--8-8--3-3- x 3 times, so 
-9-9-9-9-9-9-9-9-
d|-9-9-9-9-9-9-9-9-|          -9-9-9-9--9-9--4-4-                     
-9-9-9-9-9-9-9-9-
a|-7-7-7-7-7-7-7-7-|          -7-7-7-7--9-9--4-4-                     
-7-7-7-7-7-7-7-7-
e|-7-7-7-7-7-7-7-7-|          -7-7-7-7--7-7--2-2-                     
-7-7-7-7-7-7-7-7-

Yeah Iíll always be waiting for you
Yeah Iíll always be waiting for you
Yeah Iíll always be waiting for you
For you I will always be waiting

[EG]
|-9-11-12 X 19 times
|----------
|----------
|----------
|----------
|----------

Chorus (with other words!) (4:19) scream it!!!

And its you I see but you donít see me
And its you I hear so loud and so clear
I sing it loud and clear and Iíll always be waiting for you.

Verse 3 (4:43)

e|-7-7-7-7-7-7-7-7-7-7-7-7-7-7-7
b|-9-9-9-9-9-9-9-9-9-9-9-9-9-9-9
g|-9-9-9-9-9-9-9-9-9-9-9-9-9-9-9
d|-9-9-9-9-9-9-9-9-9-9-9-9-9-9-9
a|-7-7-7-7-7-7-7-7-7-7-7-7-7-7-7
e|-7-7-7-7-7-7-7-7-7-7-7-7-7-7-7

So I look in your direction but you pay me no attention
And you know how much I need you but you never even see me.

[EG] follows the same chords of [AG]
--------------------------------------------------------
phew! It took me a lot of time! Enjoy it!


Coldplay albums
2005 X&Y
2002 A Rush of Blood to the Head
2001 Don't Panic
2000 Acoustic CD
2000 Parachutes
Parachutes tabs
01Don't Panic tabbass tab
02Shiver tabbass tab
03Spies tabbass tab
04Sparks tabbass tab
05Yellow tabbass tab
06Trouble tabbass tab
07Parachutes tabbass tab
08High Speed tabbass tab
09We Never Change tabbass tab
10Everything's Not Lost tabbass tab
11Life Is For Living tabbass tab

 

1