Search tabs:
Browse artists: 0-9 | A | B | C | D | E | F | G | H | I | J | K | L | M | N | O | P | Q | R | S | T | U | V | W | X | Y | Z
/ Death Cab for Cutie / Plans (2005) / Soul Meets Body guitar tab

Death Cab For Cutie
Tabbed by: digburyme666@hotmail.com
Comments:digburyme666@hotmail.com
SOUL MEETS BODY

Hey i summited this for some reason got denied this is perfect it even has the mandolin
intro i think yu should play this along with the song then re evaluate.

Tuning (from low to high) = E, A, D, G, B, E

Chords:
Am/D  xx0210 D/A  x0023x Csus2  x355x3 Csus4  x35563 Dm  xx0231
F  xx3211 CaddG  x32013 Bb  x1333x F5  133xxx C  x32010


Intro: (Mandolin Riff 1 & 2) [Am/D] [D/A] [Am/D] [D/A] [Csus2] [Csus4] [Csus2][Csus4] } x 2
Verse: [Dm] [F] [Dm] [F] [Dm] [F] [CaddG] } x 2
Chorus: (Gtr. Riff 1, 2 & 3) [Dm] [F] [CaddG] [Dm] [F] [CaddG] [Dm] [Bb] [CaddG] [Dm] [D/A] [Bb] [F] [C]
Instrumental Break: (Gtr. Riff 4) [Dm] [F] (Gtr. Riff 5) [Dm] [F]
Verse: [Dm] [F] [Dm] [F] [Dm] [F] [CaddG] } x 2
Chorus: (Gtr. Riff 1, 2 & 3) [Dm] [F] [CaddG] [Dm] [F] [CaddG] [Dm] [Bb] [CaddG] [Dm] [D/A] [Bb] [F] [C] } x 2
Bridge: [Dm] [F] [Dm] [Dm] [F] [CaddG]
Chorus: (Gtr. Riff 1, 2 & 3) [Dm] [F] [CaddG] [Dm] [F] [CaddG] [Dm] [Bb] [CaddG] [Dm] [D/A] [Bb] [F] [C] } x 3
Outro: (Mandolin Riff 1) [Am/D] [D/A] } x 10


Mandolin Riff 1
E-------0-------0----------------------||
A-----3------3-----5--------5----------|| x 2
D--7------7-----------7---------7------||
G-------------------------7---------7--||

Mandolin Riff 2
E-------3-------3--------3---------3---||
A-----3------3-----8--------8----------|| x 2
D--5------5----------------------------||
G--------------------------------------||

Mandolin Riff 1 (arranged for Gtr.)
E-----------12---------12---------------------------------||
B-------13---------13-------15-----------15--------------||
G---14---------14----------------14-----------14---------|| x 2
D--------------------------------------12------------12---||
A---------------------------------------------------------||
E---------------------------------------------------------||

Mandolin Riff 2 (arranged for Gtr.)
E------------------------------------15--------15---||
B-------------20----------20---18-------18---------||
G--------17-----------17----------------------------|| x 2
D---17-----------17---------------------------------||
A----------------------------------------------------||
E----------------------------------------------------||

Gtr. Riff 1
E----------------------------------|-------------------------------------||
B---------------1--------------1---|-------------------------------------||
G-----------2--------------2-------|-------------------------------------|| x 2
D--0---0----------3---3------------|-------------------------------------||
A----------------------------------|--3---3---3---3---3---3---3---3-----||
E----------------------------------|-------------------------------------||

Gtr. Riff 2
E-----------------------------------|-------------------------------------||
B----------1------------------------|-------------------------------------||
G------2------------------0---------|-------------------------------------||
D--0------------------3-------------|-------------------------------------||
A-------------0---1------------1----|--3---3---3---3---3---3---3---3-----||
E-----------------------------------|-------------------------------------||

Gtr. Riff 3
E-----------------------------------|-------------------------------------||
B-----------------------------------|-------------------------------------||
G--2---2----------------------------|-------------------------------------||
D--0---0--3---3---3---3---3---3----|--2---2---2---2---2---2---2---2-----||
A---------0---0---1---1---3---3----|--3---3---3---3---3---3---3---3-----||
E-----------------------------------|-------------------------------------||

Gtr. Riff 4
E-----------------------------------|-------------------------------------|------------------------------------|---
B-----------------------------------|-------------------------------------|------------------------------------|---
G-----------------------------------|-------------------------------------|------------------------------------|----
D-----------------------------------|-------------------------------------|------------------------------------|----
A--------------------------------0--|-------------------------------------|-3---3---3---1---1---1---0---0-----|-5--
E-----------------------------------|--1----------------------------------|------------------------------------|----

Gtr. Riff 5
E-----------------------------------|-------------------------------------|------------------------------------|---
B-----------------------------------|-------------------------------------|------------------------------------|---
G-----------------------------------|-------------------------------------|------------------------------------|---
D-----------------------------------|-------------------------------------|------------------------------------|---
A--------------------------------0--|-------------------------------------|-3---3---3---3---3---3---3---3-----|-5-
E-----------------------------------|--1----------------------------------|------------------------------------|---


Death Cab for Cutie albums
2005 Plans
2003 Transatlanticism
2002 You Can Play These Songs With Chords
2001 The Photo Album
2000 Forbidden Love [EP]
2000 We Have the Facts and We're Voting Yes
1999 Something About Airplanes
Plans tabs
01Marching Bands of Manhattan tabbass tab
02Soul Meets Body tabbass tab
03Summer Skin tabbass tab
04Different Names for the Same Thing tabbass tab
05I Will Follow You into the Dark tabbass tab
06Your Heart Is an Empty Room tabbass tab
07Someday You Will Be Loved tabbass tab
08Crooked Teeth tabbass tab
09What Sarah Said tabbass tab
11Stable Song tabbass tab

 

1