Search tabs:
Browse artists: 0-9 | A | B | C | D | E | F | G | H | I | J | K | L | M | N | O | P | Q | R | S | T | U | V | W | X | Y | Z
/ Death Cab for Cutie / Plans (2005) / Your Heart Is an Empty Room guitar tab

Band : Death Cab For Cutie
Song : Your Heart Is An Empty Room
Album: Plans
Tabbed By: Calum (afirock74@hotmail.com)
Standard Tuning (low to high) = E, A, D, G, B, E

x   - Palm Mute
b   - Bend
b~  - Bend Up Then Down
h   - Hammer-On Directly After Note Before

Intro:
e|-0--|
B|-1--|
G|-0--|
D|-2--| Repeated
A|-3--|
E|----|


Verse:
e|--------------------------------------------------------|
B|-1-1-1-1--0-0-0-0---------------------------------------|
G|-0-0-0-0--0-0-0-0--------------------2-2-2-2-2-2-2-2-2--|
D|-2-2-2-2--2-2-2-2--7-7-7-7--5-5-5-5--3-3-3-3-3-3-3-3-3--|
A|-3-3-3-3--2-2-2-2--7-7-7-7--5-5-5-5--3-3-3-3-3-3-3-3-3--|
E|----------0-0-0-0--5-5-5-5--3-3-3-3--1-1-1-1-1-1-1-1-1--|

Riff:
e|---10----10-8----|---10----10-----8-----10-8----|
B|-8------8-----8--|-8------8-----8-----8------8--|
G|-----------------|------------------------------|
D|-----------------|------------------------------|
A|-----------------|------------------------------|
E|-----------------|------------------------------|

Chorus:
e|-0-0-0-0-0-0-0--1-1-1-1-1-1----|--------------------------------------|
B|-1-1-1-1-1-1-1--1-1-1-1-1-1----|--------------------------------------|
G|-0-0-0-0-0-0-0--2-2-2-2-2-2----|-------------------2-2-2-2-2-2-2-2-2--|
D|-2-2-2-2-2-2-2--3-3-3-3-3-3--2x|-7-7-7-7--5-5-5-5--3-3-3-3-3-3-3-3-3--|2x
A|-3-3-3-3-3-3-3--3-3-3-3-3-3----|-7-7-7-7--5-5-5-5--3-3-3-3-3-3-3-3-3--|
E|-------------------------------|-5-5-5-5--3-3-3-3--1-1-1-1-1-1-1-1-1--|

Post Chorus:
e|-0-------0--|-----|
B|-1-------1--|-----|
G|-0-------2--|---0-|
D|-2-------2--|-----|
A|-3-------0--|--3--| Repeated
E|------------|-1---|

Riff 2:
e|---10---5--7--8-----|
B|-8---------------8--|
G|--------------------|
D|--------------------|
A|--------------------|
E|--------------------|

Piano Part:
e|-------------------------|
B|-------------------------|
G|-9-----12-9---9-----12---|
D|----10-----------10---12-|
A|-------------------------|
E|-------------------------|


Death Cab for Cutie albums
2005 Plans
2003 Transatlanticism
2002 You Can Play These Songs With Chords
2001 The Photo Album
2000 Forbidden Love [EP]
2000 We Have the Facts and We're Voting Yes
1999 Something About Airplanes
Plans tabs
01Marching Bands of Manhattan tabbass tab
02Soul Meets Body tabbass tab
03Summer Skin tabbass tab
04Different Names for the Same Thing tabbass tab
05I Will Follow You into the Dark tabbass tab
06Your Heart Is an Empty Room tabbass tab
07Someday You Will Be Loved tabbass tab
08Crooked Teeth tabbass tab
09What Sarah Said tabbass tab
11Stable Song tabbass tab

 

1